  0
SECTION
  2
HEADER
  9
$ACADVER
  1
AC1018
  9
$ACADMAINTVER
 70
     0
  9
$DWGCODEPAGE
  3
ANSI_1252
  9
$INSBASE
 10
0.0
 20
0.0
 30
0.0
  9
$EXTMIN
 10
-0.5
 20
-0.5
 30
-0.5
  9
$EXTMAX
 10
5.0
 20
5.0
 30
5.0
  9
$LIMMIN
 10
-0.5
 20
-0.5
  9
$LIMMAX
 10
5.0
 20
5.0
  9
$ORTHOMODE
 70
     0
  9
$REGENMODE
 70
     1
  9
$FILLMODE
 70
     1
  9
$QTEXTMODE
 70
     0
  9
$MIRRTEXT
 70
     1
  9
$LTSCALE
 40
1.0
  9
$ATTMODE
 70
     1
  9
$TEXTSIZE
 40
0.2
  9
$TRACEWID
 40
0.05
  9
$TEXTSTYLE
  7
Standard
  9
$CLAYER
  8
0
  9
$CELTYPE
  6
ByLayer
  9
$CECOLOR
 62
   256
  9
$CELTSCALE
 40
1.0
  9
$DISPSILH
 70
     0
  9
$DIMSCALE
 40
1.0
  9
$DIMASZ
 40
0.18
  9
$DIMEXO
 40
0.0625
  9
$DIMDLI
 40
0.38
  9
$DIMRND
 40
0.0
  9
$DIMDLE
 40
0.0
  9
$DIMEXE
 40
0.18
  9
$DIMTP
 40
0.0
  9
$DIMTM
 40
0.0
  9
$DIMTXT
 40
0.18
  9
$DIMCEN
 40
0.09
  9
$DIMTSZ
 40
0.0
  9
$DIMTOL
 70
     0
  9
$DIMLIM
 70
     0
  9
$DIMTIH
 70
     1
  9
$DIMTOH
 70
     1
  9
$DIMSE1
 70
     0
  9
$DIMSE2
 70
     0
  9
$DIMTAD
 70
     0
  9
$DIMZIN
 70
     0
  9
$DIMBLK
  1

  9
$DIMASO
 70
     1
  9
$DIMSHO
 70
     1
  9
$DIMPOST
  1

  9
$DIMAPOST
  1

  9
$DIMALT
 70
     0
  9
$DIMALTD
 70
     2
  9
$DIMALTF
 40
25.4
  9
$DIMLFAC
 40
1.0
  9
$DIMTOFL
 70
     0
  9
$DIMTVP
 40
0.0
  9
$DIMTIX
 70
     0
  9
$DIMSOXD
 70
     0
  9
$DIMSAH
 70
     0
  9
$DIMBLK1
  1

  9
$DIMBLK2
  1

  9
$DIMSTYLE
  2
Standard
  9
$DIMCLRD
 70
     0
  9
$DIMCLRE
 70
     0
  9
$DIMCLRT
 70
     0
  9
$DIMTFAC
 40
1.0
  9
$DIMGAP
 40
0.09
  9
$DIMJUST
 70
     0
  9
$DIMSD1
 70
     0
  9
$DIMSD2
 70
     0
  9
$DIMTOLJ
 70
     1
  9
$DIMTZIN
 70
     0
  9
$DIMALTZ
 70
     0
  9
$DIMALTTZ
 70
     0
  9
$DIMUPT
 70
     0
  9
$DIMDEC
 70
     4
  9
$DIMTDEC
 70
     4
  9
$DIMALTU
 70
     2
  9
$DIMALTTD
 70
     2
  9
$DIMTXSTY
  7
Standard
  9
$DIMAUNIT
 70
     0
  9
$DIMADEC
 70
     0
  9
$DIMALTRND
 40
0.0
  9
$DIMAZIN
 70
     0
  9
$DIMDSEP
 70
    46
  9
$DIMATFIT
 70
     3
  9
$DIMFRAC
 70
     0
  9
$DIMLDRBLK
  1

  9
$DIMLUNIT
 70
     2
  9
$DIMLWD
 70
    -2
  9
$DIMLWE
 70
    -2
  9
$DIMTMOVE
 70
     0
  9
$LUNITS
 70
     2
  9
$LUPREC
 70
     4
  9
$SKETCHINC
 40
0.1
  9
$FILLETRAD
 40
0.5
  9
$AUNITS
 70
     0
  9
$AUPREC
 70
     0
  9
$MENU
  1
.
  9
$ELEVATION
 40
0.0
  9
$PELEVATION
 40
0.0
  9
$THICKNESS
 40
0.0
  9
$LIMCHECK
 70
     0
  9
$CHAMFERA
 40
0.0
  9
$CHAMFERB
 40
0.0
  9
$CHAMFERC
 40
0.0
  9
$CHAMFERD
 40
0.0
  9
$SKPOLY
 70
     0
  9
$TDCREATE
 40
2457232.548314074
  9
$TDUCREATE
 40
2457232.464980741
  9
$TDUPDATE
 40
2457232.548314155
  9
$TDUUPDATE
 40
2457232.464980822
  9
$TDINDWG
 40
0.0000000116
  9
$TDUSRTIMER
 40
0.0000000116
  9
$USRTIMER
 70
     1
  9
$ANGBASE
 50
0.0
  9
$ANGDIR
 70
     0
  9
$PDMODE
 70
     0
  9
$PDSIZE
 40
0.0
  9
$PLINEWID
 40
0.0
  9
$SPLFRAME
 70
     0
  9
$SPLINETYPE
 70
     6
  9
$SPLINESEGS
 70
     8
  9
$HANDSEED
  5
130
  9
$SURFTAB1
 70
     6
  9
$SURFTAB2
 70
     6
  9
$SURFTYPE
 70
     6
  9
$SURFU
 70
     6
  9
$SURFV
 70
     6
  9
$UCSBASE
  2

  9
$UCSNAME
  2

  9
$UCSORG
 10
0.0
 20
0.0
 30
0.0
  9
$UCSXDIR
 10
1.0
 20
0.0
 30
0.0
  9
$UCSYDIR
 10
0.0
 20
1.0
 30
0.0
  9
$UCSORTHOREF
  2

  9
$UCSORTHOVIEW
 70
     0
  9
$UCSORGTOP
 10
0.0
 20
0.0
 30
0.0
  9
$UCSORGBOTTOM
 10
0.0
 20
0.0
 30
0.0
  9
$UCSORGLEFT
 10
0.0
 20
0.0
 30
0.0
  9
$UCSORGRIGHT
 10
0.0
 20
0.0
 30
0.0
  9
$UCSORGFRONT
 10
0.0
 20
0.0
 30
0.0
  9
$UCSORGBACK
 10
0.0
 20
0.0
 30
0.0
  9
$PUCSBASE
  2

  9
$PUCSNAME
  2

  9
$PUCSORG
 10
0.0
 20
0.0
 30
0.0
  9
$PUCSXDIR
 10
1.0
 20
0.0
 30
0.0
  9
$PUCSYDIR
 10
0.0
 20
1.0
 30
0.0
  9
$PUCSORTHOREF
  2

  9
$PUCSORTHOVIEW
 70
     0
  9
$PUCSORGTOP
 10
0.0
 20
0.0
 30
0.0
  9
$PUCSORGBOTTOM
 10
0.0
 20
0.0
 30
0.0
  9
$PUCSORGLEFT
 10
0.0
 20
0.0
 30
0.0
  9
$PUCSORGRIGHT
 10
0.0
 20
0.0
 30
0.0
  9
$PUCSORGFRONT
 10
0.0
 20
0.0
 30
0.0
  9
$PUCSORGBACK
 10
0.0
 20
0.0
 30
0.0
  9
$USERI1
 70
     0
  9
$USERI2
 70
     0
  9
$USERI3
 70
     0
  9
$USERI4
 70
     0
  9
$USERI5
 70
     0
  9
$USERR1
 40
0.0
  9
$USERR2
 40
0.0
  9
$USERR3
 40
0.0
  9
$USERR4
 40
0.0
  9
$USERR5
 40
0.0
  9
$WORLDVIEW
 70
     1
  9
$SHADEDGE
 70
     3
  9
$SHADEDIF
 70
    70
  9
$TILEMODE
 70
     1
  9
$MAXACTVP
 70
    64
  9
$PINSBASE
 10
0.0
 20
0.0
 30
0.0
  9
$PLIMCHECK
 70
     0
  9
$PEXTMIN
 10
-0.5
 20
-0.5
 30
-0.5
  9
$PEXTMAX
 10
5.0
 20
5.0
 30
5.0
  9
$PLIMMIN
 10
-0.5
 20
-0.5
  9
$PLIMMAX
 10
5.0
 20
5.0
  9
$UNITMODE
 70
     0
  9
$VISRETAIN
 70
     1
  9
$PLINEGEN
 70
     0
  9
$PSLTSCALE
 70
     1
  9
$TREEDEPTH
 70
  3020
  9
$CMLSTYLE
  2
Standard
  9
$CMLJUST
 70
     0
  9
$CMLSCALE
 40
1.0
  9
$PROXYGRAPHICS
 70
     1
  9
$MEASUREMENT
 70
     1
  9
$CELWEIGHT
370
    18
  9
$ENDCAPS
280
     0
  9
$JOINSTYLE
280
     0
  9
$LWDISPLAY
290
     1
  9
$INSUNITS
 70
     4
  9
$HYPERLINKBASE
  1

  9
$STYLESHEET
  1

  9
$XEDIT
290
     1
  9
$CEPSNTYPE
380
     0
  9
$PSTYLEMODE
290
     1
  9
$FINGERPRINTGUID
  2
{622D8431-9C96-475A-97B2-8BA05348F8E7}
  9
$VERSIONGUID
  2
{FAEB1C32-E019-11D5-929B-00C0DF256EC4}
  9
$EXTNAMES
290
     1
  9
$PSVPSCALE
 40
0.0
  9
$OLESTARTUP
290
     0
  9
$SORTENTS
280
   127
  9
$INDEXCTL
280
     0
  9
$HIDETEXT
280
     1
  9
$XCLIPFRAME
290
     0
  9
$HALOGAP
280
     0
  9
$OBSCOLOR
 70
   257
  9
$OBSLTYPE
280
     0
  9
$INTERSECTIONDISPLAY
280
     0
  9
$INTERSECTIONCOLOR
 70
   257
  9
$DIMASSOC
280
     2
  9
$PROJECTNAME
  1

  0
ENDSEC
  0
SECTION
  2
CLASSES
  0
CLASS
  1
ACDBDICTIONARYWDFLT
  2
AcDbDictionaryWithDefault
  3
ObjectDBX Classes
 90
        0
 91
        4
280
     0
281
     0
  0
CLASS
  1
VISUALSTYLE
  2
AcDbVisualStyle
  3
ObjectDBX Classes
 90
     4095
 91
        4
280
     0
281
     0
  0
CLASS
  1
MATERIAL
  2
AcDbMaterial
  3
ObjectDBX Classes
 90
     1153
 91
        4
280
     0
281
     0
  0
CLASS
  1
SCALE
  2
AcDbScale
  3
ObjectDBX Classes
 90
     1153
 91
        4
280
     0
281
     0
  0
CLASS
  1
TABLESTYLE
  2
AcDbTableStyle
  3
ObjectDBX Classes
 90
     4095
 91
        4
280
     0
281
     0
  0
CLASS
  1
MLEADERSTYLE
  2
AcDbMLeaderStyle
  3
ACDB_MLEADERSTYLE_CLASS
 90
     4095
 91
        4
280
     0
281
     0
  0
CLASS
  1
SUN
  2
AcDbSun
  3
SCENEOE
 90
     1153
 91
        4
280
     0
281
     0
  0
CLASS
  1
DICTIONARYVAR
  2
AcDbDictionaryVar
  3
ObjectDBX Classes
 90
        0
 91
        4
280
     0
281
     0
  0
CLASS
  1
CELLSTYLEMAP
  2
AcDbCellStyleMap
  3
ObjectDBX Classes
 90
     1152
 91
        4
280
     0
281
     0
  0
ENDSEC
  0
SECTION
  2
TABLES
  0
TABLE
  2
VPORT
  5
8
102
{ACAD_XDICTIONARY
360
E9
102
}
330
0
100
AcDbSymbolTable
 70
    16
  0
VPORT
  5
29
330
8
100
AcDbSymbolTableRecord
100
AcDbViewportTableRecord
  2
*Active
 70
     0
 10
0.0
 20
0.0
 11
1.0
 21
1.0
 12
259.804619
 22
-1.315586
 13
0.0
 23
0.0
 14
0.5
 24
0.5
 15
0.5
 25
0.5
 16
0.0
 26
0.0
 36
1.0
 17
0.0
 27
0.0
 37
0.0
 40
254.0
 41
0.069908
 42
50.0
 43
582.80181
 44
-582.80181
 50
0.0
 51
0.0
 71
     0
 72
   100
 73
     1
 74
     3
 75
     0
 76
     0
 77
     0
 78
     0
281
     0
 65
     1
110
0.0
120
0.0
130
0.0
111
1.0
121
0.0
131
0.0
112
0.0
122
1.0
132
0.0
 79
     0
146
0.0
  0
VPORT
  5
DA
330
8
100
AcDbSymbolTableRecord
100
AcDbViewportTableRecord
  2
L1
 70
     0
 10
0.0
 20
0.0
 11
1.0
 21
1.0
 12
259.804619
 22
-1.315586
 13
0.0
 23
0.0
 14
0.5
 24
0.5
 15
0.5
 25
0.5
 16
0.0
 26
0.0
 36
1.0
 17
0.0
 27
0.0
 37
0.0
 40
254.0
 41
0.069908
 42
50.0
 43
582.80181
 44
-582.80181
 50
0.0
 51
0.0
 71
     0
 72
   100
 73
     1
 74
     3
 75
     0
 76
     0
 77
     0
 78
     0
281
     0
 65
     1
110
0.0
120
0.0
130
0.0
111
1.0
121
0.0
131
0.0
112
0.0
122
1.0
132
0.0
 79
     0
146
0.0
  0
VPORT
  5
DB
330
8
100
AcDbSymbolTableRecord
100
AcDbViewportTableRecord
  2
L2
 70
     0
 10
0.0
 20
0.0
 11
0.5
 21
1.0
 12
0.0
 22
0.0
 13
0.0
 23
0.0
 14
0.5
 24
0.5
 15
0.5
 25
0.5
 16
0.0
 26
-1.0
 36
0.0
 17
0.0
 27
0.0
 37
0.0
 40
1722.661755
 41
0.010308
 42
50.0
 43
889.980449
 44
-889.980449
 50
0.0
 51
0.0
 71
     0
 72
   100
 73
     1
 74
     3
 75
     0
 76
     0
 77
     0
 78
     0
281
     0
 65
     1
110
0.0
120
0.0
130
0.0
111
1.0
121
0.0
131
0.0
112
0.0
122
1.0
132
0.0
 79
     0
146
0.0
  0
VPORT
  5
DC
330
8
100
AcDbSymbolTableRecord
100
AcDbViewportTableRecord
  2
L2
 70
     0
 10
0.5
 20
0.0
 11
1.0
 21
1.0
 12
0.0
 22
0.0
 13
0.0
 23
0.0
 14
0.5
 24
0.5
 15
0.5
 25
0.5
 16
1.0
 26
0.0
 36
0.0
 17
0.0
 27
0.0
 37
0.0
 40
1722.661755
 41
0.010308
 42
50.0
 43
870.643371
 44
-870.643371
 50
0.0
 51
0.0
 71
     0
 72
   100
 73
     1
 74
     3
 75
     0
 76
     0
 77
     0
 78
     0
281
     0
 65
     1
110
0.0
120
0.0
130
0.0
111
1.0
121
0.0
131
0.0
112
0.0
122
1.0
132
0.0
 79
     0
146
0.0
  0
VPORT
  5
DD
330
8
100
AcDbSymbolTableRecord
100
AcDbViewportTableRecord
  2
L3
 70
     0
 10
0.0
 20
0.5
 11
1.0
 21
1.0
 12
259.804619
 22
-1.315586
 13
0.0
 23
0.0
 14
0.5
 24
0.5
 15
0.5
 25
0.5
 16
0.0
 26
0.0
 36
1.0
 17
0.0
 27
0.0
 37
0.0
 40
254.0
 41
0.069908
 42
50.0
 43
582.80181
 44
-582.80181
 50
0.0
 51
0.0
 71
     0
 72
   100
 73
     1
 74
     3
 75
     0
 76
     0
 77
     0
 78
     0
281
     0
 65
     1
110
0.0
120
0.0
130
0.0
111
1.0
121
0.0
131
0.0
112
0.0
122
1.0
132
0.0
 79
     0
146
0.0
  0
VPORT
  5
DE
330
8
100
AcDbSymbolTableRecord
100
AcDbViewportTableRecord
  2
L3
 70
     0
 10
0.0
 20
0.0
 11
1.0
 21
0.5
 12
0.0
 22
0.0
 13
0.0
 23
0.0
 14
0.5
 24
0.5
 15
0.5
 25
0.5
 16
0.0
 26
-1.0
 36
0.0
 17
0.0
 27
0.0
 37
0.0
 40
1722.661755
 41
0.010308
 42
50.0
 43
889.980449
 44
-889.980449
 50
0.0
 51
0.0
 71
     0
 72
   100
 73
     1
 74
     3
 75
     0
 76
     0
 77
     0
 78
     0
281
     0
 65
     1
110
0.0
120
0.0
130
0.0
111
1.0
121
0.0
131
0.0
112
0.0
122
1.0
132
0.0
 79
     0
146
0.0
  0
VPORT
  5
DF
330
8
100
AcDbSymbolTableRecord
100
AcDbViewportTableRecord
  2
L4
 70
     0
 10
0.0
 20
0.5
 11
0.5
 21
1.0
 12
259.804619
 22
-1.315586
 13
0.0
 23
0.0
 14
0.5
 24
0.5
 15
0.5
 25
0.5
 16
0.0
 26
0.0
 36
1.0
 17
0.0
 27
0.0
 37
0.0
 40
254.0
 41
0.069908
 42
50.0
 43
582.80181
 44
-582.80181
 50
0.0
 51
0.0
 71
     0
 72
   100
 73
     1
 74
     3
 75
     0
 76
     0
 77
     0
 78
     0
281
     0
 65
     1
110
0.0
120
0.0
130
0.0
111
1.0
121
0.0
131
0.0
112
0.0
122
1.0
132
0.0
 79
     0
146
0.0
  0
VPORT
  5
E0
330
8
100
AcDbSymbolTableRecord
100
AcDbViewportTableRecord
  2
L4
 70
     0
 10
0.0
 20
0.0
 11
0.5
 21
0.5
 12
0.0
 22
0.0
 13
0.0
 23
0.0
 14
0.5
 24
0.5
 15
0.5
 25
0.5
 16
0.0
 26
-1.0
 36
0.0
 17
0.0
 27
0.0
 37
0.0
 40
1722.661755
 41
0.010308
 42
50.0
 43
889.980449
 44
-889.980449
 50
0.0
 51
0.0
 71
     0
 72
   100
 73
     1
 74
     3
 75
     0
 76
     0
 77
     0
 78
     0
281
     0
 65
     1
110
0.0
120
0.0
130
0.0
111
1.0
121
0.0
131
0.0
112
0.0
122
1.0
132
0.0
 79
     0
146
0.0
  0
VPORT
  5
E1
330
8
100
AcDbSymbolTableRecord
100
AcDbViewportTableRecord
  2
L4
 70
     0
 10
0.5
 20
0.0
 11
1.0
 21
0.5
 12
0.0
 22
0.0
 13
0.0
 23
0.0
 14
0.5
 24
0.5
 15
0.5
 25
0.5
 16
1.0
 26
0.0
 36
0.0
 17
0.0
 27
0.0
 37
0.0
 40
1722.661755
 41
0.010308
 42
50.0
 43
870.643371
 44
-870.643371
 50
0.0
 51
0.0
 71
     0
 72
   100
 73
     1
 74
     3
 75
     0
 76
     0
 77
     0
 78
     0
281
     0
 65
     1
110
0.0
120
0.0
130
0.0
111
1.0
121
0.0
131
0.0
112
0.0
122
1.0
132
0.0
 79
     0
146
0.0
  0
VPORT
  5
E2
330
8
100
AcDbSymbolTableRecord
100
AcDbViewportTableRecord
  2
L4
 70
     0
 10
0.5
 20
0.5
 11
1.0
 21
1.0
 12
0.0
 22
0.0
 13
0.0
 23
0.0
 14
0.5
 24
0.5
 15
0.5
 25
0.5
 16
0.5773502691896258
 26
-0.5773502691896258
 36
0.5773502691896258
 17
0.0
 27
0.0
 37
0.0
 40
1693.134671
 41
0.010488
 42
50.0
 43
882.199205
 44
-882.199205
 50
0.0
 51
0.0
 71
     0
 72
   100
 73
     1
 74
     3
 75
     0
 76
     0
 77
     0
 78
     0
281
     0
 65
     1
110
0.0
120
0.0
130
0.0
111
1.0
121
0.0
131
0.0
112
0.0
122
1.0
132
0.0
 79
     0
146
0.0
  0
VPORT
  5
E3
330
8
100
AcDbSymbolTableRecord
100
AcDbViewportTableRecord
  2
L6
 70
     0
 10
0.0
 20
0.5
 11
0.333333
 21
1.0
 12
0.0
 22
0.0
 13
0.0
 23
0.0
 14
0.5
 24
0.5
 15
0.5
 25
0.5
 16
0.7188730927569433
 26
-0.5850486126764433
 36
0.3754192287502549
 17
0.0
 27
0.0
 37
0.0
 40
1787.293747
 41
0.009935
 42
50.0
 43
925.285437
 44
-925.285437
 50
0.0
 51
0.0
 71
     0
 72
   100
 73
     1
 74
     3
 75
     0
 76
     0
 77
     0
 78
     0
281
     0
 65
     1
110
0.0
120
0.0
130
0.0
111
1.0
121
0.0
131
0.0
112
0.0
122
1.0
132
0.0
 79
     0
146
0.0
  0
VPORT
  5
E4
330
8
100
AcDbSymbolTableRecord
100
AcDbViewportTableRecord
  2
L6
 70
     0
 10
0.0
 20
0.0
 11
0.333333
 21
0.5
 12
0.0
 22
0.0
 13
0.0
 23
0.0
 14
0.5
 24
0.5
 15
0.5
 25
0.5
 16
-1.0
 26
0.0
 36
0.0
 17
0.0
 27
0.0
 37
0.0
 40
1722.661755
 41
0.010308
 42
50.0
 43
870.643371
 44
-870.643371
 50
0.0
 51
0.0
 71
     0
 72
   100
 73
     1
 74
     3
 75
     0
 76
     0
 77
     0
 78
     0
281
     0
 65
     1
110
0.0
120
0.0
130
0.0
111
1.0
121
0.0
131
0.0
112
0.0
122
1.0
132
0.0
 79
     0
146
0.0
  0
VPORT
  5
E5
330
8
100
AcDbSymbolTableRecord
100
AcDbViewportTableRecord
  2
L6
 70
     0
 10
0.333333
 20
0.5
 11
0.666667
 21
1.0
 12
259.804619
 22
-1.315586
 13
0.0
 23
0.0
 14
0.5
 24
0.5
 15
0.5
 25
0.5
 16
0.0
 26
0.0
 36
1.0
 17
0.0
 27
0.0
 37
0.0
 40
254.0
 41
0.069908
 42
50.0
 43
582.80181
 44
-582.80181
 50
0.0
 51
0.0
 71
     0
 72
   100
 73
     1
 74
     3
 75
     0
 76
     0
 77
     0
 78
     0
281
     0
 65
     1
110
0.0
120
0.0
130
0.0
111
1.0
121
0.0
131
0.0
112
0.0
122
1.0
132
0.0
 79
     0
146
0.0
  0
VPORT
  5
E6
330
8
100
AcDbSymbolTableRecord
100
AcDbViewportTableRecord
  2
L6
 70
     0
 10
0.333333
 20
0.0
 11
0.666667
 21
0.5
 12
0.0
 22
0.0
 13
0.0
 23
0.0
 14
0.5
 24
0.5
 15
0.5
 25
0.5
 16
0.0
 26
-1.0
 36
0.0
 17
0.0
 27
0.0
 37
0.0
 40
1722.661755
 41
0.010308
 42
50.0
 43
889.980449
 44
-889.980449
 50
0.0
 51
0.0
 71
     0
 72
   100
 73
     1
 74
     3
 75
     0
 76
     0
 77
     0
 78
     0
281
     0
 65
     1
110
0.0
120
0.0
130
0.0
111
1.0
121
0.0
131
0.0
112
0.0
122
1.0
132
0.0
 79
     0
146
0.0
  0
VPORT
  5
E7
330
8
100
AcDbSymbolTableRecord
100
AcDbViewportTableRecord
  2
L6
 70
     0
 10
0.666667
 20
0.5
 11
1.0
 21
1.0
 12
0.0
 22
0.0
 13
0.0
 23
0.0
 14
0.5
 24
0.5
 15
0.5
 25
0.5
 16
0.5773502691896258
 26
-0.5773502691896258
 36
0.5773502691896258
 17
0.0
 27
0.0
 37
0.0
 40
1693.134671
 41
0.010488
 42
50.0
 43
882.199205
 44
-882.199205
 50
0.0
 51
0.0
 71
     0
 72
   100
 73
     1
 74
     3
 75
     0
 76
     0
 77
     0
 78
     0
281
     0
 65
     1
110
0.0
120
0.0
130
0.0
111
1.0
121
0.0
131
0.0
112
0.0
122
1.0
132
0.0
 79
     0
146
0.0
  0
VPORT
  5
E8
330
8
100
AcDbSymbolTableRecord
100
AcDbViewportTableRecord
  2
L6
 70
     0
 10
0.666667
 20
0.0
 11
1.0
 21
0.5
 12
0.0
 22
0.0
 13
0.0
 23
0.0
 14
0.5
 24
0.5
 15
0.5
 25
0.5
 16
1.0
 26
0.0
 36
0.0
 17
0.0
 27
0.0
 37
0.0
 40
1722.661755
 41
0.010308
 42
50.0
 43
870.643371
 44
-870.643371
 50
0.0
 51
0.0
 71
     0
 72
   100
 73
     1
 74
     3
 75
     0
 76
     0
 77
     0
 78
     0
281
     0
 65
     1
110
0.0
120
0.0
130
0.0
111
1.0
121
0.0
131
0.0
112
0.0
122
1.0
132
0.0
 79
     0
146
0.0
  0
ENDTAB
  0
TABLE
  2
LTYPE
  5
5
330
0
100
AcDbSymbolTable
 70
     6
  0
LTYPE
  5
14
330
5
100
AcDbSymbolTableRecord
100
AcDbLinetypeTableRecord
  2
ByBlock
 70
     0
  3

 72
    65
 73
     0
 40
0.0
  0
LTYPE
  5
15
330
5
100
AcDbSymbolTableRecord
100
AcDbLinetypeTableRecord
  2
ByLayer
 70
     0
  3

 72
    65
 73
     0
 40
0.0
  0
LTYPE
  5
16
330
5
100
AcDbSymbolTableRecord
100
AcDbLinetypeTableRecord
  2
Continuous
 70
     0
  3
Solid line
 72
    65
 73
     0
 40
0.0
  0
LTYPE
  5
6E
330
5
100
AcDbSymbolTableRecord
100
AcDbLinetypeTableRecord
  2
CENTER
 70
     0
  3
____ _ ____ _ ____ _ ____
 72
    65
 73
     4
 40
47.4
 49
22.0
 74
     4
 75
     0
340
0
 46
0.0
 50
0.0
 44
0.0
 45
0.0
 49
-8.5
 74
     4
 75
     0
340
0
 46
0.0
 50
0.0
 44
0.0
 45
0.0
 49
8.5
 74
     4
 75
     0
340
0
 46
0.0
 50
0.0
 44
0.0
 45
0.0
 49
-8.5
 74
     4
 75
     0
340
0
 46
0.0
 50
0.0
 44
0.0
 45
0.0
  0
LTYPE
  5
6F
330
5
100
AcDbSymbolTableRecord
100
AcDbLinetypeTableRecord
  2
DASHDOT
 70
     0
  3
_._._._._._._._._._._._._._._._.
 72
    65
 73
     4
 40
70.0
 49
31.0
 74
     4
 75
     0
340
0
 46
0.0
 50
0.0
 44
0.0
 45
0.0
 49
-13.0
 74
     4
 75
     0
340
0
 46
0.0
 50
0.0
 44
0.0
 45
0.0
 49
13.0
 74
     4
 75
     0
340
0
 46
0.0
 50
0.0
 44
0.0
 45
0.0
 49
-13.0
 74
     4
 75
     0
340
0
 46
0.0
 50
0.0
 44
0.0
 45
0.0
  0
LTYPE
  5
70
330
5
100
AcDbSymbolTableRecord
100
AcDbLinetypeTableRecord
  2
DASHED
 70
     0
  3
__ __ __ __ __ __ __ __ __
 72
    65
 73
     2
 40
25.72
 49
12.86
 74
     4
 75
     0
340
0
 46
0.0
 50
0.0
 44
0.0
 45
0.0
 49
-12.86
 74
     4
 75
     0
340
0
 46
0.0
 50
0.0
 44
0.0
 45
0.0
  0
LTYPE
  5
71
330
5
100
AcDbSymbolTableRecord
100
AcDbLinetypeTableRecord
  2
DOT
 70
     0
  3
.........................
 72
    65
 73
     2
 40
10.0
 49
0.0
 74
     4
 75
     0
340
0
 46
0.0
 50
0.0
 44
0.0
 45
0.0
 49
-10.0
 74
     4
 75
     0
340
0
 46
0.0
 50
0.0
 44
0.0
 45
0.0
  0
LTYPE
  5
72
330
5
100
AcDbSymbolTableRecord
100
AcDbLinetypeTableRecord
  2
PHANTOM
 70
     0
  3
____ _ _ ____ _ _ _____ _ _ ____
 72
    65
 73
     6
 40
50.5
 49
18.0
 74
     4
 75
     0
340
0
 46
0.0
 50
0.0
 44
0.0
 45
0.0
 49
-6.5
 74
     4
 75
     0
340
0
 46
0.0
 50
0.0
 44
0.0
 45
0.0
 49
6.5
 74
     4
 75
     0
340
0
 46
0.0
 50
0.0
 44
0.0
 45
0.0
 49
-6.5
 74
     4
 75
     0
340
0
 46
0.0
 50
0.0
 44
0.0
 45
0.0
 49
6.5
 74
     4
 75
     0
340
0
 46
0.0
 50
0.0
 44
0.0
 45
0.0
 49
-6.5
 74
     4
 75
     0
340
0
 46
0.0
 50
0.0
 44
0.0
 45
0.0
  0
ENDTAB
  0
TABLE
  2
LAYER
  5
2
330
0
100
AcDbSymbolTable
 70
     2
  0
LAYER
  5
10
330
2
100
AcDbSymbolTableRecord
100
AcDbLayerTableRecord
  2
0
 70
     0
 62
     7
  6
Continuous
370
    -3
390
F
  0
LAYER
  5
74
330
2
100
AcDbSymbolTableRecord
100
AcDbLayerTableRecord
  2
1
 70
     0
 62
     7
420
 16777215
  6
Continuous
370
    -3
390
F
  0
ENDTAB
  0
TABLE
  2
STYLE
  5
3
330
0
100
AcDbSymbolTable
 70
     1
  0
STYLE
  5
11
330
3
100
AcDbSymbolTableRecord
100
AcDbTextStyleTableRecord
  2
Standard
 70
     0
 40
0.0
 41
1.0
 50
0.0
 71
     0
 42
0.2
  3
txt
  4

  0
ENDTAB
  0
TABLE
  2
VIEW
  5
6
330
0
100
AcDbSymbolTable
 70
     8
  0
VIEW
  5
D2
330
6
100
AcDbSymbolTableRecord
100
AcDbViewTableRecord
  2
Top
 70
     0
 40
254.0
 10
259.804619
 20
-1.315586
 41
447.9925
 11
0.0
 21
0.0
 31
1.0
 12
0.0
 22
0.0
 32
0.0
 42
50.0
 43
582.80181
 44
-582.80181
 50
0.0
 71
     0
281
     0
 72
     0
  0
VIEW
  5
D3
330
6
100
AcDbSymbolTableRecord
100
AcDbViewTableRecord
  2
Front
 70
     0
 40
1722.661755
 10
0.0
 20
0.0
 41
447.9925
 11
0.0
 21
-1.0
 31
0.0
 12
0.0
 22
0.0
 32
0.0
 42
50.0
 43
889.980449
 44
-889.980449
 50
0.0
 71
     0
281
     0
 72
     0
  0
VIEW
  5
D4
330
6
100
AcDbSymbolTableRecord
100
AcDbViewTableRecord
  2
Right
 70
     0
 40
1722.661755
 10
0.0
 20
0.0
 41
254.0
 11
1.0
 21
0.0
 31
0.0
 12
0.0
 22
0.0
 32
0.0
 42
50.0
 43
870.643371
 44
-870.643371
 50
0.0
 71
     0
281
     0
 72
     0
  0
VIEW
  5
D5
330
6
100
AcDbSymbolTableRecord
100
AcDbViewTableRecord
  2
Back
 70
     0
 40
1722.661755
 10
0.0
 20
0.0
 41
447.9925
 11
0.0
 21
1.0
 31
0.0
 12
0.0
 22
0.0
 32
0.0
 42
50.0
 43
889.980449
 44
-889.980449
 50
0.0
 71
     0
281
     0
 72
     0
  0
VIEW
  5
D6
330
6
100
AcDbSymbolTableRecord
100
AcDbViewTableRecord
  2
Bottom
 70
     0
 40
254.0
 10
0.0
 20
0.0
 41
447.9925
 11
0.0
 21
0.0
 31
-1.0
 12
0.0
 22
0.0
 32
0.0
 42
50.0
 43
861.330877
 44
-861.330877
 50
180.0
 71
     0
281
     0
 72
     0
  0
VIEW
  5
D7
330
6
100
AcDbSymbolTableRecord
100
AcDbViewTableRecord
  2
Left
 70
     0
 40
1722.661755
 10
0.0
 20
0.0
 41
254.0
 11
-1.0
 21
0.0
 31
0.0
 12
0.0
 22
0.0
 32
0.0
 42
50.0
 43
870.643371
 44
-870.643371
 50
0.0
 71
     0
281
     0
 72
     0
  0
VIEW
  5
D8
330
6
100
AcDbSymbolTableRecord
100
AcDbViewTableRecord
  2
Isometric
 70
     0
 40
1693.134671
 10
0.0
 20
0.0
 41
496.383657
 11
0.5773502691896258
 21
-0.5773502691896258
 31
0.5773502691896258
 12
0.0
 22
0.0
 32
0.0
 42
50.0
 43
882.199205
 44
-882.199205
 50
0.0
 71
     0
281
     0
 72
     0
  0
VIEW
  5
D9
330
6
100
AcDbSymbolTableRecord
100
AcDbViewTableRecord
  2
Trimetric
 70
     0
 40
1787.293747
 10
0.0
 20
0.0
 41
479.784973
 11
0.7188730927569433
 21
-0.5850486126764433
 31
0.3754192287502549
 12
0.0
 22
0.0
 32
0.0
 42
50.0
 43
925.285437
 44
-925.285437
 50
0.0
 71
     0
281
     0
 72
     0
  0
ENDTAB
  0
TABLE
  2
UCS
  5
7
330
0
100
AcDbSymbolTable
 70
     0
  0
ENDTAB
  0
TABLE
  2
APPID
  5
9
330
0
100
AcDbSymbolTable
 70
     2
  0
APPID
  5
12
330
9
100
AcDbSymbolTableRecord
100
AcDbRegAppTableRecord
  2
ACAD
 70
     0
  0
APPID
  5
128
330
9
100
AcDbSymbolTableRecord
100
AcDbRegAppTableRecord
  2
ACAD_MLEADERVER
 70
     0
  0
ENDTAB
  0
TABLE
  2
DIMSTYLE
  5
A
330
0
100
AcDbSymbolTable
 70
     1
100
AcDbDimStyleTable
  0
DIMSTYLE
105
27
330
A
100
AcDbSymbolTableRecord
100
AcDbDimStyleTableRecord
  2
Standard
 70
     0
178
     0
340
11
  0
ENDTAB
  0
TABLE
  2
BLOCK_RECORD
  5
1
330
0
100
AcDbSymbolTable
 70
     1
  0
BLOCK_RECORD
  5
1F
330
1
100
AcDbSymbolTableRecord
100
AcDbBlockTableRecord
  2
*Model_Space
340
22
  0
BLOCK_RECORD
  5
1B
330
1
100
AcDbSymbolTableRecord
100
AcDbBlockTableRecord
  2
*Paper_Space
340
1E
  0
BLOCK_RECORD
  5
23
330
1
100
AcDbSymbolTableRecord
100
AcDbBlockTableRecord
  2
*Paper_Space0
340
26
  0
ENDTAB
  0
ENDSEC
  0
SECTION
  2
BLOCKS
  0
BLOCK
  5
20
330
1F
100
AcDbEntity
  8
0
100
AcDbBlockBegin
  2
*Model_Space
 70
     0
 10
0.0
 20
0.0
 30
0.0
  3
*Model_Space
  1

  0
ENDBLK
  5
21
330
1F
100
AcDbEntity
  8
0
100
AcDbBlockEnd
  0
BLOCK
  5
1C
330
1B
100
AcDbEntity
 67
     1
  8
0
100
AcDbBlockBegin
  2
*Paper_Space
 70
     0
 10
0.0
 20
0.0
 30
0.0
  3
*Paper_Space
  1

  0
ENDBLK
  5
1D
330
1B
100
AcDbEntity
 67
     1
  8
0
100
AcDbBlockEnd
  0
BLOCK
  5
24
330
23
100
AcDbEntity
  8
0
100
AcDbBlockBegin
  2
*Paper_Space0
 70
     0
 10
0.0
 20
0.0
 30
0.0
  3
*Paper_Space0
  1

  0
ENDBLK
  5
25
330
23
100
AcDbEntity
  8
0
100
AcDbBlockEnd
  0
ENDSEC
  0
SECTION
  2
ENTITIES
  0
ARC
  5
73
330
1F
100
AcDbEntity
  8
1
  6
Continuous
 62
   163
370
    18
100
AcDbCircle
 10
188.890618
 20
1.921082
 30
0.0
 40
0.3000000000000381
100
AcDbArc
 50
93.928034
 51
169.046834
  0
SPLINE
  5
75
330
1F
100
AcDbEntity
  8
1
  6
Continuous
 62
   163
370
    18
100
AcDbSpline
210
0.0
220
0.0
230
1.0
 70
     8
 71
     3
 72
    29
 73
    25
 74
     0
 42
0.000000001
 43
0.0000000001
 40
0.0
 40
0.0
 40
0.0
 40
0.0
 40
0.1250000000000002
 40
0.1250000000000002
 40
0.1250000000000002
 40
0.2500000000000004
 40
0.2500000000000004
 40
0.2500000000000004
 40
0.3749999999999998
 40
0.3749999999999998
 40
0.3749999999999998
 40
0.5
 40
0.5
 40
0.5
 40
0.6250000000000002
 40
0.6250000000000002
 40
0.6250000000000002
 40
0.75
 40
0.75
 40
0.75
 40
0.8749999999999998
 40
0.8749999999999998
 40
0.8749999999999998
 40
1.0
 40
1.0
 40
1.0
 40
1.0
 10
440.2071334307885
 20
-5.046315590528972
 30
0.0
 10
439.9088991894395
 20
-5.713836223675029
 30
0.0
 10
439.847238262248
 20
-6.736371763982424
 30
0.0
 10
439.3640693272179
 20
-7.55026675158321
 30
0.0
 10
439.1974814597057
 20
-7.830882951287272
 30
0.0
 10
438.8275128138005
 20
-8.570375754055288
 30
0.0
 10
438.5270495032361
 20
-7.957204851343061
 30
0.0
 10
438.1632249737016
 20
-7.214729456312522
 30
0.0
 10
438.3689835672408
 20
-6.25721023233965
 30
0.0
 10
438.0471063733584
 20
-5.495601856828758
 30
0.0
 10
437.9532719068906
 20
-5.273575826617111
 30
0.0
 10
437.7979721903088
 20
-4.84722687787115
 30
0.0
 10
437.7384258196775
 20
-4.613657412379545
 30
0.0
 10
437.6618415029595
 20
-4.313256939081081
 30
0.0
 10
437.6606182071918
 20
-4.011863834088379
 30
0.0
 10
437.6747973271898
 20
-3.70217922935533
 30
0.0
 10
437.6956069652119
 20
-3.247678207680488
 30
0.0
 10
437.5842141618922
 20
-2.839190135298181
 30
0.0
 10
437.5338573412458
 20
-2.3961889926462
 30
0.0
 10
437.4761100869374
 20
-1.888172415839353
 30
0.0
 10
437.4566747304891
 20
-1.376114570586413
 30
0.0
 10
437.4703387796081
 20
-0.8650912997915792
 30
0.0
 10
437.4976483842054
 20
0.156263596091142
 30
0.0
 10
437.657052107539
 20
1.170380836914911
 30
0.0
 10
437.8925383224002
 20
2.163376202983371
 30
0.0
  0
SPLINE
  5
76
330
1F
100
AcDbEntity
  8
1
  6
Continuous
 62
   163
370
    18
100
AcDbSpline
210
0.0
220
0.0
230
1.0
 70
     8
 71
     3
 72
    23
 73
    19
 74
     0
 42
0.000000001
 43
0.0000000001
 40
0.0
 40
0.0
 40
0.0
 40
0.0
 40
0.1666666666666665
 40
0.1666666666666665
 40
0.1666666666666665
 40
0.3333333333333329
 40
0.3333333333333329
 40
0.3333333333333329
 40
0.5
 40
0.5
 40
0.5
 40
0.6666666666666664
 40
0.6666666666666664
 40
0.6666666666666664
 40
0.8333333333333329
 40
0.8333333333333329
 40
0.8333333333333329
 40
1.0
 40
1.0
 40
1.0
 40
1.0
 10
442.3721800637186
 20
-3.908492562961854
 30
0.0
 10
442.3954099693563
 20
-5.256991583160516
 30
0.0
 10
442.3173501704674
 20
-6.610462081716753
 30
0.0
 10
441.9138952006605
 20
-7.905299173689243
 30
0.0
 10
441.8662158096642
 20
-8.058320077148
 30
0.0
 10
441.7823559167413
 20
-8.237186358916713
 30
0.0
 10
441.6226200820619
 20
-8.250346293575681
 30
0.0
 10
441.3421302015181
 20
-8.273454624326046
 30
0.0
 10
441.2836912072539
 20
-7.854282766878343
 30
0.0
 10
441.2283806056613
 20
-7.665941341991006
 30
0.0
 10
441.1377496936119
 20
-7.357328623583202
 30
0.0
 10
441.0541173032818
 20
-7.046679638341182
 30
0.0
 10
440.976200520695
 20
-6.734620835441383
 30
0.0
 10
440.8265372900946
 20
-6.135215585009745
 30
0.0
 10
440.8236762156451
 20
-5.557898632733446
 30
0.0
 10
440.775952160002
 20
-5.059899347081307
 30
0.0
 10
440.699936001359
 20
-4.85519070105456
 30
0.0
 10
440.356397111952
 20
-4.71222723600185
 30
0.0
 10
440.2071334307885
 20
-5.046315590528972
 30
0.0
  0
SPLINE
  5
77
330
1F
100
AcDbEntity
  8
1
  6
Continuous
 62
   163
370
    18
100
AcDbSpline
210
0.0
220
0.0
230
1.0
 70
     8
 71
     3
 72
    66
 73
    62
 74
     0
 42
0.000000001
 43
0.0000000001
 40
0.0
 40
0.0
 40
0.0
 40
0.0
 40
0.0294688816700748
 40
0.0294688816700748
 40
0.0294688816700748
 40
0.0779954375865711
 40
0.0779954375865711
 40
0.0779954375865711
 40
0.1265219935030673
 40
0.1265219935030673
 40
0.1265219935030673
 40
0.1750485494195636
 40
0.1750485494195636
 40
0.1750485494195636
 40
0.2235751053360597
 40
0.2235751053360597
 40
0.2721016612525563
 40
0.2721016612525563
 40
0.2721016612525563
 40
0.3206282171690522
 40
0.3206282171690522
 40
0.3206282171690522
 40
0.3691547730855488
 40
0.3691547730855488
 40
0.3691547730855488
 40
0.4176813290020448
 40
0.4176813290020448
 40
0.4176813290020448
 40
0.4662078849185411
 40
0.4662078849185411
 40
0.4662078849185411
 40
0.5147344408350375
 40
0.5147344408350375
 40
0.5147344408350375
 40
0.5632609967515336
 40
0.5632609967515336
 40
0.61178755266803
 40
0.61178755266803
 40
0.61178755266803
 40
0.660314108584526
 40
0.660314108584526
 40
0.660314108584526
 40
0.7088406645010223
 40
0.7088406645010223
 40
0.7088406645010223
 40
0.7573672204175187
 40
0.7573672204175187
 40
0.7573672204175187
 40
0.8058937763340148
 40
0.8058937763340148
 40
0.8058937763340148
 40
0.8544203322505112
 40
0.8544203322505112
 40
0.8544203322505112
 40
0.9029468881670073
 40
0.9029468881670073
 40
0.9029468881670073
 40
0.9514734440835036
 40
0.9514734440835036
 40
0.9514734440835036
 40
1.0
 40
1.0
 40
1.0
 40
1.0
 10
438.4378740553824
 20
3.892509115643025
 30
0.0
 10
438.3761005881705
 20
4.411404961937038
 30
0.0
 10
438.1603695510213
 20
4.944110849564712
 30
0.0
 10
438.0063035078299
 20
5.378982756947815
 30
0.0
 10
437.7240223133073
 20
6.175758989643766
 30
0.0
 10
437.4103806761005
 20
6.979299418537213
 30
0.0
 10
437.3448882386572
 20
7.829969716748285
 30
0.0
 10
437.3395570681395
 20
7.899215397489106
 30
0.0
 10
437.3368819462401
 20
7.972744829570271
 30
0.0
 10
437.3700555787329
 20
8.033758850895147
 30
0.0
 10
437.4488403631418
 20
8.178662382850518
 30
0.0
 10
437.6630717958375
 20
8.160796857354567
 30
0.0
 10
437.8158881308059
 20
8.098738463247585
 30
0.0
 10
438.1466403377427
 20
7.964420683580435
 30
0.0
 10
438.4218025238652
 20
7.724653021507058
 30
0.0
 10
439.0327709518949
 20
7.355233567135695
 30
0.0
 10
439.4053822115272
 20
7.223477933912522
 30
0.0
 10
439.744219278851
 20
7.335851111994462
 30
0.0
 10
439.9762612231073
 20
7.412806360516541
 30
0.0
 10
440.1582779701072
 20
7.609146668297137
 30
0.0
 10
440.3950920460298
 20
7.669848131315885
 30
0.0
 10
440.7296873898177
 20
7.75561341704923
 30
0.0
 10
440.9310169158075
 20
7.748779121723393
 30
0.0
 10
440.9237679913938
 20
7.504416630415042
 30
0.0
 10
440.9178071508247
 20
7.303475667503001
 30
0.0
 10
440.7111372729345
 20
7.030875001494387
 30
0.0
 10
440.7371270158653
 20
6.831532744412163
 30
0.0
 10
440.7675844701927
 20
6.597922981255208
 30
0.0
 10
441.0912492434477
 20
6.5973642074676
 30
0.0
 10
441.3205321692218
 20
6.651498451503603
 30
0.0
 10
441.6115402599297
 20
6.720206153769912
 30
0.0
 10
441.8107977148305
 20
6.746557765164529
 30
0.0
 10
442.0232059080137
 20
6.697280083979664
 30
0.0
 10
442.2563724564383
 20
6.643186564026182
 30
0.0
 10
442.2237324856866
 20
6.429393288108098
 30
0.0
 10
442.057864515462
 20
5.980328917136311
 30
0.0
 10
441.9183253155234
 20
5.758117085173805
 30
0.0
 10
441.7923156304892
 20
5.554612028653612
 30
0.0
 10
441.6814574350096
 20
5.375576557446332
 30
0.0
 10
441.6064559236676
 20
5.174438487388036
 30
0.0
 10
441.573028337049
 20
4.966530246946262
 30
0.0
 10
441.5532929335753
 20
4.84378273730944
 30
0.0
 10
441.5496852628959
 20
4.710848609386524
 30
0.0
 10
441.6113006090658
 20
4.60286718800568
 30
0.0
 10
441.7103753857569
 20
4.42923779411096
 30
0.0
 10
442.1843193317601
 20
4.436358051702914
 30
0.0
 10
442.3833331188472
 20
4.477720399215889
 30
0.0
 10
442.6453643056665
 20
4.532180068403092
 30
0.0
 10
442.8064315441762
 20
5.026781083992862
 30
0.0
 10
443.0739049946213
 20
4.69503581896871
 30
0.0
 10
443.8570826717857
 20
3.723666564788703
 30
0.0
 10
443.7760912831482
 20
2.165388766356593
 30
0.0
 10
442.8963971007649
 20
1.28046709264354
 30
0.0
 10
442.7540914025629
 20
1.137315757607307
 30
0.0
 10
442.5913008187122
 20
1.006304233169816
 30
0.0
 10
442.501469551429
 20
0.8255459391401284
 30
0.0
 10
442.4354808048514
 20
0.6927635169693969
 30
0.0
 10
442.4141101759678
 20
0.5428459733017171
 30
0.0
 10
442.3966937836208
 20
0.395596675842773
 30
0.0
 10
442.2277521063261
 20
-1.032744096324496
 30
0.0
 10
442.3475048089276
 20
-2.475784170622715
 30
0.0
 10
442.3721800637186
 20
-3.908492562961854
 30
0.0
  0
SPLINE
  5
78
330
1F
100
AcDbEntity
  8
1
  6
Continuous
 62
   163
370
    18
100
AcDbSpline
210
0.0
220
0.0
230
1.0
 70
     8
 71
     3
 72
     8
 73
     4
 74
     0
 42
0.000000001
 43
0.0000000001
 40
0.0
 40
0.0
 40
0.0
 40
0.0
 40
1.0
 40
1.0
 40
1.0
 40
1.0
 10
439.1154085460976
 20
3.180428340902201
 30
0.0
 10
438.8886283625001
 20
3.12907985339083
 30
0.0
 10
438.454479274296
 20
3.603076898364699
 30
0.0
 10
438.4375252333772
 20
3.892467589111541
 30
0.0
  0
SPLINE
  5
79
330
1F
100
AcDbEntity
  8
1
  6
Continuous
 62
   163
370
    18
100
AcDbSpline
210
0.0
220
0.0
230
1.0
 70
     8
 71
     3
 72
    73
 73
    69
 74
     0
 42
0.000000001
 43
0.0000000001
 40
0.0
 40
0.0
 40
0.0
 40
0.0
 40
0.0434782608695652
 40
0.0434782608695652
 40
0.0434782608695652
 40
0.0869565217391304
 40
0.0869565217391304
 40
0.0869565217391304
 40
0.1304347826086957
 40
0.1304347826086957
 40
0.1304347826086957
 40
0.1739130434782609
 40
0.1739130434782609
 40
0.1739130434782609
 40
0.2173913043478261
 40
0.2173913043478261
 40
0.2173913043478261
 40
0.2608695652173914
 40
0.2608695652173914
 40
0.2608695652173914
 40
0.3043478260869565
 40
0.3043478260869565
 40
0.3043478260869565
 40
0.3478260869565217
 40
0.3478260869565217
 40
0.3913043478260869
 40
0.3913043478260869
 40
0.3913043478260869
 40
0.4347826086956521
 40
0.4347826086956521
 40
0.4347826086956521
 40
0.4782608695652174
 40
0.4782608695652174
 40
0.4782608695652174
 40
0.5217391304347826
 40
0.5217391304347826
 40
0.5217391304347826
 40
0.5652173913043478
 40
0.5652173913043478
 40
0.5652173913043478
 40
0.6086956521739131
 40
0.6086956521739131
 40
0.6086956521739131
 40
0.6521739130434783
 40
0.6521739130434783
 40
0.6521739130434783
 40
0.6956521739130435
 40
0.6956521739130435
 40
0.6956521739130435
 40
0.7391304347826086
 40
0.7391304347826086
 40
0.7391304347826086
 40
0.782608695652174
 40
0.782608695652174
 40
0.782608695652174
 40
0.8260869565217391
 40
0.8260869565217391
 40
0.8260869565217391
 40
0.8695652173913043
 40
0.8695652173913043
 40
0.8695652173913043
 40
0.9130434782608695
 40
0.9130434782608695
 40
0.9130434782608695
 40
0.9565217391304348
 40
0.9565217391304348
 40
0.9565217391304348
 40
1.0
 40
1.0
 40
1.0
 40
1.0
 10
439.2570465936382
 20
-4.825572010064031
 30
0.0
 10
439.491854477153
 20
-4.805353615463696
 30
0.0
 10
439.7696248152246
 20
-4.596664206161115
 30
0.0
 10
440.0178205418472
 20
-4.234958351805735
 30
0.0
 10
440.4340911909603
 20
-3.434682185275632
 30
0.0
 10
440.2461117258854
 20
-2.705509593251762
 30
0.0
 10
439.8918401960922
 20
-1.831665763882914
 30
0.0
 10
439.6599682871658
 20
-1.259732035712551
 30
0.0
 10
439.5491037104977
 20
-0.8361644634249266
 30
0.0
 10
439.4240676816115
 20
-0.2972734095727001
 30
0.0
 10
439.3508582862272
 20
0.1040376003176751
 30
0.0
 10
439.3118796379077
 20
0.4300182290289299
 30
0.0
 10
439.3057752319399
 20
0.69022361040268
 30
0.0
 10
439.3214357032305
 20
1.160127479299752
 30
0.0
 10
439.3828891432861
 20
1.52480733631388
 30
0.0
 10
439.5150489598911
 20
1.921618243606867
 30
0.0
 10
439.6341298308006
 20
2.20594285336706
 30
0.0
 10
439.7826454881492
 20
2.454702168541122
 30
0.0
 10
440.0057871800531
 20
2.625575747480061
 30
0.0
 10
440.0522106709662
 20
2.661125124073377
 30
0.0
 10
440.1051782364135
 20
2.694138697855487
 30
0.0
 10
440.1636483728988
 20
2.694512206384476
 30
0.0
 10
440.2539213552478
 20
2.695088872198367
 30
0.0
 10
440.328133896777
 20
2.615157062535837
 30
0.0
 10
440.3792006617958
 20
2.441979937356547
 30
0.0
 10
440.367897120512
 20
2.349492799108167
 30
0.0
 10
440.3605127943006
 20
2.259520556054792
 30
0.0
 10
440.309084900014
 20
1.632911861914076
 30
0.0
 10
440.4657281556616
 20
0.9909824837441572
 30
0.0
 10
440.7999987445589
 20
0.4584917550668803
 30
0.0
 10
440.8640837767633
 20
0.3564047434382878
 30
0.0
 10
440.9449107973993
 20
0.3091847584852379
 30
0.0
 10
441.0677118527912
 20
0.2954533774514693
 30
0.0
 10
441.2652086007098
 20
0.3421636888576841
 30
0.0
 10
441.3520018784843
 20
0.491196532770518
 30
0.0
 10
441.4081894490143
 20
0.6831243082987666
 30
0.0
 10
441.481409683711
 20
0.9332329468542157
 30
0.0
 10
441.5507669021891
 20
1.192259841299476
 30
0.0
 10
441.6847575301764
 20
1.418178810191744
 30
0.0
 10
441.8318722090751
 20
1.666225983825747
 30
0.0
 10
442.067551205292
 20
1.758910799838795
 30
0.0
 10
442.2789789656562
 20
1.93766659421369
 30
0.0
 10
442.5611308164113
 20
2.176217473857947
 30
0.0
 10
442.7302379530385
 20
2.651206279934388
 30
0.0
 10
442.591732355201
 20
3.005525471428247
 30
0.0
 10
442.5121007003243
 20
3.209235819701096
 30
0.0
 10
442.3240773538748
 20
3.383982038517249
 30
0.0
 10
442.1053847499307
 20
3.38753892368124
 30
0.0
 10
442.0140243988611
 20
3.389024837111489
 30
0.0
 10
441.9250619389397
 20
3.361562315818758
 30
0.0
 10
441.8353480911405
 20
3.344231799835582
 30
0.0
 10
441.224469734646
 20
3.226225077565679
 30
0.0
 10
440.5589562132575
 20
3.651367837528591
 30
0.0
 10
440.4092390407936
 20
4.255257493682818
 30
0.0
 10
440.3248236826727
 20
4.595749908486442
 30
0.0
 10
440.3889029617737
 20
4.956808033225069
 30
0.0
 10
440.3301026120577
 20
5.302645501535865
 30
0.0
 10
440.2840779733611
 20
5.573341927724067
 30
0.0
 10
440.1187871150989
 20
5.863586139834953
 30
0.0
 10
439.8466327409768
 20
5.900011650847321
 30
0.0
 10
439.6294752352889
 20
5.929076306303877
 30
0.0
 10
439.42620138157
 20
5.784404086116281
 30
0.0
 10
439.2824942187951
 20
5.619024566697073
 30
0.0
 10
438.9404556417987
 20
5.225403438882441
 30
0.0
 10
438.7988666461609
 20
4.66603937735055
 30
0.0
 10
438.9124423556549
 20
4.157090952248645
 30
0.0
 10
438.9854049492483
 20
3.830135503182071
 30
0.0
 10
439.340624890165
 20
3.261371520024432
 30
0.0
 10
439.1154085460976
 20
3.180428340902201
 30
0.0
  0
SPLINE
  5
7A
330
1F
100
AcDbEntity
  8
1
  6
Continuous
 62
   163
370
    18
100
AcDbSpline
210
0.0
220
0.0
230
1.0
 70
     8
 71
     3
 72
    25
 73
    21
 74
     0
 42
0.000000001
 43
0.0000000001
 40
0.0
 40
0.0
 40
0.0
 40
0.0
 40
0.1428571428571428
 40
0.1428571428571428
 40
0.1428571428571428
 40
0.2857142857142857
 40
0.2857142857142857
 40
0.2857142857142857
 40
0.4285714285714286
 40
0.4285714285714286
 40
0.4285714285714286
 40
0.5714285714285714
 40
0.5714285714285714
 40
0.5714285714285714
 40
0.7142857142857143
 40
0.7142857142857143
 40
0.7142857142857143
 40
0.8571428571428571
 40
0.8571428571428571
 40
1.0
 40
1.0
 40
1.0
 40
1.0
 10
438.3236607649809
 20
2.590233438046333
 30
0.0
 10
438.4697047514937
 20
2.566840270198059
 30
0.0
 10
438.5314207432625
 20
2.179579410785018
 30
0.0
 10
438.606475509601
 20
1.962479284339951
 30
0.0
 10
438.7031408421781
 20
1.68286938147634
 30
0.0
 10
438.7487750832626
 20
1.377254477887967
 30
0.0
 10
438.7057308031929
 20
1.084238962458038
 30
0.0
 10
438.6121268467098
 20
0.6880899595567295
 30
0.0
 10
438.4352775809018
 20
0.3312263316685021
 30
0.0
 10
438.3293830567753
 20
-0.0634958666516636
 30
0.0
 10
438.1918352121336
 20
-0.576205924693679
 30
0.0
 10
438.3057574746289
 20
-1.118024329717138
 30
0.0
 10
438.4004736713618
 20
-1.640345929945152
 30
0.0
 10
438.5336842020585
 20
-2.374948246769072
 30
0.0
 10
438.6279828148538
 20
-3.11660514475302
 30
0.0
 10
438.6828421992617
 20
-3.861169484705615
 30
0.0
 10
438.6996628199884
 20
-4.089462866123339
 30
0.0
 10
438.7137664731711
 20
-4.322559866957263
 30
0.0
 10
438.8838694998615
 20
-4.747607031264679
 30
0.0
 10
439.0328329488084
 20
-4.844878175930737
 30
0.0
 10
439.2570465936382
 20
-4.825572010064031
 30
0.0
  0
SPLINE
  5
7B
330
1F
100
AcDbEntity
  8
1
  6
Continuous
 62
   163
370
    18
100
AcDbSpline
210
0.0
220
0.0
230
1.0
 70
     8
 71
     3
 72
     8
 73
     4
 74
     0
 42
0.000000001
 43
0.0000000001
 40
0.0
 40
0.0
 40
0.0
 40
0.0
 40
1.0
 40
1.0
 40
1.0
 40
1.0
 10
437.8925383224002
 20
2.163376202983371
 30
0.0
 10
437.9779990807782
 20
2.34850647841283
 30
0.0
 10
438.0594653341121
 20
2.533940589353682
 30
0.0
 10
438.3236607649809
 20
2.590233438046333
 30
0.0
  0
SPLINE
  5
7C
330
1F
100
AcDbEntity
  8
1
  6
Continuous
 62
   163
370
    18
100
AcDbSpline
210
0.0
220
0.0
230
1.0
 70
     8
 71
     3
 72
    50
 73
    46
 74
     0
 42
0.000000001
 43
0.0000000001
 40
0.0
 40
0.0
 40
0.0
 40
0.0
 40
0.0625
 40
0.0625
 40
0.125
 40
0.125
 40
0.125
 40
0.1875
 40
0.1875
 40
0.25
 40
0.25
 40
0.25
 40
0.3125
 40
0.3125
 40
0.3125
 40
0.375
 40
0.375
 40
0.375
 40
0.4375
 40
0.4375
 40
0.4375
 40
0.5
 40
0.5
 40
0.5
 40
0.5625
 40
0.5625
 40
0.5625
 40
0.625
 40
0.625
 40
0.625
 40
0.6874999999999999
 40
0.6874999999999999
 40
0.6874999999999999
 40
0.7499999999999999
 40
0.7499999999999999
 40
0.8125
 40
0.8125
 40
0.8125
 40
0.875
 40
0.875
 40
0.875
 40
0.9375
 40
0.9375
 40
0.9375
 40
1.0
 40
1.0
 40
1.0
 40
1.0
 10
419.9525358030875
 20
1.372574062571162
 30
0.0
 10
419.8581512124118
 20
1.347863727884063
 30
0.0
 10
419.7934185492071
 20
1.24995653595094
 30
0.0
 10
419.750764930455
 20
1.039887141398192
 30
0.0
 10
419.7898480359502
 20
0.9305692231533005
 30
0.0
 10
419.7746479030263
 20
0.8244745544986176
 30
0.0
 10
419.7486733314284
 20
0.6431759052746913
 30
0.0
 10
419.5713302292978
 20
0.5193973470330217
 30
0.0
 10
419.2172100203344
 20
0.4257256227801834
 30
0.0
 10
419.0297940879078
 20
0.4329314060711256
 30
0.0
 10
418.8512921837754
 20
0.3919320291992915
 30
0.0
 10
418.6888122756843
 20
0.3546126794797232
 30
0.0
 10
418.5381863395173
 20
0.2784391605933461
 30
0.0
 10
418.3913509197595
 20
0.1994973211837876
 30
0.0
 10
418.0328556138422
 20
0.0067626328130142
 30
0.0
 10
417.6917733309957
 20
-0.2116636336021854
 30
0.0
 10
417.3531762816131
 20
-0.4363919520389
 30
0.0
 10
417.3071114044928
 20
-0.4669654091706346
 30
0.0
 10
417.2632379679093
 20
-0.5068813928913347
 30
0.0
 10
417.2478375165657
 20
-0.5599806178720115
 30
0.0
 10
417.2142949236705
 20
-0.6756321430670953
 30
0.0
 10
417.3186355632777
 20
-0.8354387271853059
 30
0.0
 10
417.3548987367162
 20
-0.9421122042640349
 30
0.0
 10
417.4022148302582
 20
-1.081299477227578
 30
0.0
 10
417.4396341486786
 20
-1.223696267363926
 30
0.0
 10
417.4705558160118
 20
-1.367368156359087
 30
0.0
 10
417.531549812693
 20
-1.650765640268826
 30
0.0
 10
417.5668037204263
 20
-1.938861062550569
 30
0.0
 10
417.6018325815869
 20
-2.226369463569179
 30
0.0
 10
417.635642399087
 20
-2.503872249731635
 30
0.0
 10
417.6694522167512
 20
-2.781375035874584
 30
0.0
 10
417.7032620076195
 20
-3.058877845503845
 30
0.0
 10
417.7295119199224
 20
-3.274330950344465
 30
0.0
 10
417.7536522579363
 20
-3.503672057153927
 30
0.0
 10
417.5648380524362
 20
-3.894550029067356
 30
0.0
 10
417.3030194795645
 20
-4.024786654136403
 30
0.0
 10
417.1230187688802
 20
-3.903506631558442
 30
0.0
 10
416.9627998244376
 20
-3.795555073336513
 30
0.0
 10
416.9537213781139
 20
-3.568415530104556
 30
0.0
 10
416.9495671817266
 20
-3.375266902728458
 30
0.0
 10
416.9366503387452
 20
-2.774700569482376
 30
0.0
 10
416.813257755992
 20
-2.161428235386304
 30
0.0
 10
416.5724631880848
 20
-1.60998645766145
 30
0.0
 10
416.5227884591164
 20
-1.496226745021756
 30
0.0
 10
416.4390820086402
 20
-1.347207348959115
 30
0.0
 10
416.3071877896404
 20
-1.321067192969778
 30
0.0
  0
SPLINE
  5
7D
330
1F
100
AcDbEntity
  8
1
  6
Continuous
 62
   163
370
    18
100
AcDbSpline
210
0.0
220
0.0
230
1.0
 70
     8
 71
     3
 72
    73
 73
    69
 74
     0
 42
0.000000001
 43
0.0000000001
 40
0.0
 40
0.0
 40
0.0
 40
0.0
 40
0.0310432378500844
 40
0.0310432378500844
 40
0.0310432378500844
 40
0.0757812907685599
 40
0.0757812907685599
 40
0.0757812907685599
 40
0.1205193436870353
 40
0.1205193436870353
 40
0.1205193436870353
 40
0.1652573966055108
 40
0.1652573966055108
 40
0.1652573966055108
 40
0.2099954495239862
 40
0.2099954495239862
 40
0.2099954495239862
 40
0.2547335024424617
 40
0.2547335024424617
 40
0.2547335024424617
 40
0.2994715553609371
 40
0.2994715553609371
 40
0.2994715553609371
 40
0.3442096082794126
 40
0.3442096082794126
 40
0.3442096082794126
 40
0.3889476611978879
 40
0.3889476611978879
 40
0.3889476611978879
 40
0.4336857141163635
 40
0.4336857141163635
 40
0.4336857141163635
 40
0.4784237670348389
 40
0.4784237670348389
 40
0.4784237670348389
 40
0.5231618199533143
 40
0.5231618199533143
 40
0.5231618199533143
 40
0.5678998728717898
 40
0.5678998728717898
 40
0.5678998728717898
 40
0.6126379257902653
 40
0.6126379257902653
 40
0.6573759787087408
 40
0.6573759787087408
 40
0.6573759787087408
 40
0.7021140316272161
 40
0.7021140316272161
 40
0.7021140316272161
 40
0.7468520845456916
 40
0.7468520845456916
 40
0.7468520845456916
 40
0.791590137464167
 40
0.791590137464167
 40
0.791590137464167
 40
0.8363281903826425
 40
0.8363281903826425
 40
0.8363281903826425
 40
0.8810662433011178
 40
0.8810662433011178
 40
0.8810662433011178
 40
0.9258042962195933
 40
0.9258042962195933
 40
0.9258042962195933
 40
0.9705423491380689
 40
0.9705423491380689
 40
0.9705423491380689
 40
1.0
 40
1.0
 40
1.0
 40
1.0
 10
416.0255562156401
 20
-1.543596057902524
 30
0.0
 10
415.9496906765268
 20
-1.830968426672828
 30
0.0
 10
415.8221318796962
 20
-2.109398633514125
 30
0.0
 10
415.8074073636947
 20
-2.408796305594715
 30
0.0
 10
415.7853586923511
 20
-2.857118061779254
 30
0.0
 10
416.0113281763819
 20
-2.964727937017194
 30
0.0
 10
415.9733906572758
 20
-3.192996603713156
 30
0.0
 10
415.8276922545879
 20
-4.069658570676201
 30
0.0
 10
415.1566813424336
 20
-4.815434533803113
 30
0.0
 10
415.1289013261377
 20
-5.763864210628899
 30
0.0
 10
415.1227843430424
 20
-5.972702399865651
 30
0.0
 10
415.1633194124402
 20
-6.187218896335552
 30
0.0
 10
415.1038897907013
 20
-6.387515997067492
 30
0.0
 10
415.0691785116232
 20
-6.504504265856751
 30
0.0
 10
415.0022959802135
 20
-6.608893404613764
 30
0.0
 10
414.9516475411569
 20
-6.719915309591235
 30
0.0
 10
414.8451534079952
 20
-6.953351556645615
 30
0.0
 10
414.809212837123
 20
-7.237343371165935
 30
0.0
 10
414.8530034325108
 20
-7.490086307669706
 30
0.0
 10
414.8642117956809
 20
-7.554776787347492
 30
0.0
 10
414.8916263848949
 20
-7.618743156088351
 30
0.0
 10
414.940916626522
 20
-7.662112951606874
 30
0.0
 10
415.1501417617959
 20
-7.846207227362432
 30
0.0
 10
415.5798717923114
 20
-7.452126711610052
 30
0.0
 10
415.7374569906767
 20
-7.321614534589404
 30
0.0
 10
415.9375835940621
 20
-7.155869534687731
 30
0.0
 10
416.1319659252898
 20
-6.983191796113345
 30
0.0
 10
416.3202017152745
 20
-6.8040577535675
 30
0.0
 10
416.6966855453049
 20
-6.445778010740924
 30
0.0
 10
417.0485774726582
 20
-6.061673241052546
 30
0.0
 10
417.3727556635228
 20
-5.655459284746655
 30
0.0
 10
417.84903617468
 20
-5.058652355099027
 30
0.0
 10
418.2657077768912
 20
-4.413687497958195
 30
0.0
 10
418.6132080046538
 20
-3.733747961081952
 30
0.0
 10
418.7171079229349
 20
-3.530451224350535
 30
0.0
 10
418.8172181888219
 20
-3.313639369627978
 30
0.0
 10
418.8090201393708
 20
-3.085478139060462
 30
0.0
 10
418.801525848252
 20
-2.876903319635197
 30
0.0
 10
418.7044372254926
 20
-2.683747316366357
 30
0.0
 10
418.6170740169534
 20
-2.49420236588535
 30
0.0
 10
418.4815467352506
 20
-2.200159686721645
 30
0.0
 10
418.3635593038192
 20
-1.891615671689578
 30
0.0
 10
418.3183744901142
 20
-1.245648735195774
 30
0.0
 10
418.4017994266808
 20
-0.9035108428978554
 30
0.0
 10
418.6247847474372
 20
-0.6687635653091631
 30
0.0
 10
419.0462130088235
 20
-0.2251059437051867
 30
0.0
 10
419.7555687554347
 20
-0.3094847994503207
 30
0.0
 10
420.361055430843
 20
-0.2210554366004829
 30
0.0
 10
420.6201204609887
 20
-0.1832198301653584
 30
0.0
 10
420.9096777047309
 20
-0.0751074599034986
 30
0.0
 10
420.9935144209172
 20
0.1729199904598632
 30
0.0
 10
421.0351978403496
 20
0.2962386593502592
 30
0.0
 10
421.0182766836709
 20
0.4381344158546109
 30
0.0
 10
421.0834386770716
 20
0.5508238802334302
 30
0.0
 10
421.1804911647708
 20
0.718663939824362
 30
0.0
 10
421.4200903972951
 20
0.8526080189295328
 30
0.0
 10
421.4004049872417
 20
1.045486103911777
 30
0.0
 10
421.3856142633729
 20
1.190405944930001
 30
0.0
 10
421.3364559149325
 20
1.28431946014786
 30
0.0
 10
421.1946179502569
 20
1.317418974214117
 30
0.0
 10
421.0863905758354
 20
1.34267507197473
 30
0.0
 10
420.920110108196
 20
1.197917619641393
 30
0.0
 10
420.8282196594468
 20
1.132833461291733
 30
0.0
 10
420.7533441325739
 20
1.07980063019944
 30
0.0
 10
420.6513741174748
 20
1.078094037927402
 30
0.0
 10
420.5827002708459
 20
1.138944087124282
 30
0.0
 10
420.4117697164033
 20
1.290401055936287
 30
0.0
 10
420.1813332684632
 20
1.373653677986003
 30
0.0
 10
419.952534555051
 20
1.373037440233923
 30
0.0
  0
SPLINE
  5
7E
330
1F
100
AcDbEntity
  8
1
  6
Continuous
 62
   163
370
    18
100
AcDbSpline
210
0.0
220
0.0
230
1.0
 70
     8
 71
     3
 72
     8
 73
     4
 74
     0
 42
0.000000001
 43
0.0000000001
 40
0.0
 40
0.0
 40
0.0
 40
0.0
 40
1.0
 40
1.0
 40
1.0
 40
1.0
 10
416.3071877896404
 20
-1.321067192969778
 30
0.0
 10
416.1801563626001
 20
-1.295899601317117
 30
0.0
 10
416.0986969574137
 20
-1.398052300577664
 30
0.0
 10
416.0254306264907
 20
-1.543562901954374
 30
0.0
  0
SPLINE
  5
7F
330
1F
100
AcDbEntity
  8
1
  6
Continuous
 62
   163
370
    18
100
AcDbSpline
210
0.0
220
0.0
230
1.0
 70
     8
 71
     3
 72
    11
 73
     7
 74
     0
 42
0.000000001
 43
0.0000000001
 40
0.0
 40
0.0
 40
0.0
 40
0.0
 40
0.5000000000000029
 40
0.5000000000000029
 40
0.5000000000000029
 40
1.0
 40
1.0
 40
1.0
 40
1.0
 10
415.5588465620503
 20
-0.3605735488934267
 30
0.0
 10
414.7251021261753
 20
0.0091524192155565
 30
0.0
 10
413.8054589116461
 20
-0.0177241789558052
 30
0.0
 10
412.9225678787858
 20
-0.1470201157329798
 30
0.0
 10
412.8168605316973
 20
-0.1625005430534003
 30
0.0
 10
412.1180718233188
 20
-0.2788418498712308
 30
0.0
 10
412.1201495598391
 20
-0.0716491077839797
 30
0.0
  0
SPLINE
  5
80
330
1F
100
AcDbEntity
  8
1
  6
Continuous
 62
   163
370
    18
100
AcDbSpline
210
0.0
220
0.0
230
1.0
 70
     8
 71
     3
 72
    26
 73
    22
 74
     0
 42
0.000000001
 43
0.0000000001
 40
0.0
 40
0.0
 40
0.0
 40
0.0
 40
0.1428571428571423
 40
0.1428571428571423
 40
0.1428571428571423
 40
0.2857142857142847
 40
0.2857142857142847
 40
0.2857142857142847
 40
0.4285714285714288
 40
0.4285714285714288
 40
0.4285714285714288
 40
0.5714285714285712
 40
0.5714285714285712
 40
0.5714285714285712
 40
0.7142857142857135
 40
0.7142857142857135
 40
0.7142857142857135
 40
0.8571428571428577
 40
0.8571428571428577
 40
0.8571428571428577
 40
1.0
 40
1.0
 40
1.0
 40
1.0
 10
134.475831840898
 20
9.245973293512948
 30
0.0
 10
134.1948489667522
 20
9.41315896178834
 30
0.0
 10
133.6521571489567
 20
9.759391438604027
 30
0.0
 10
133.9369488369222
 20
10.14176808290863
 30
0.0
 10
134.3153377677288
 20
10.6498134217228
 30
0.0
 10
135.5595986567485
 20
10.25354858480854
 30
0.0
 10
136.0590666679478
 20
10.183565032106
 30
0.0
 10
137.0674684591795
 20
10.04227161927548
 30
0.0
 10
138.0732335127572
 20
9.866274047126804
 30
0.0
 10
139.0564008908312
 20
9.59814509976107
 30
0.0
 10
140.202048774087
 20
9.285704545039936
 30
0.0
 10
141.2832565553908
 20
8.76355248146081
 30
0.0
 10
142.3591069744296
 20
8.271099766589591
 30
0.0
 10
143.4479184949167
 20
7.772714322146525
 30
0.0
 10
144.5391713075126
 20
7.262034748552241
 30
0.0
 10
145.5252369450799
 20
6.576054636929316
 30
0.0
 10
146.1367205565198
 20
6.150661458168928
 30
0.0
 10
146.4671932186485
 20
5.519352924671213
 30
0.0
 10
146.695690270606
 20
4.834878311117448
 30
0.0
 10
146.8685725623738
 20
4.317000558060009
 30
0.0
 10
147.1711167547191
 20
3.610705875414427
 30
0.0
 10
147.7871234375197
 20
3.522078349407633
 30
0.0
  0
SPLINE
  5
81
330
1F
100
AcDbEntity
  8
1
  6
Continuous
 62
   163
370
    18
100
AcDbSpline
210
0.0
220
0.0
230
1.0
 70
     8
 71
     3
 72
    17
 73
    13
 74
     0
 42
0.000000001
 43
0.0000000001
 40
0.0
 40
0.0
 40
0.0
 40
0.0
 40
0.1750099694493956
 40
0.1750099694493956
 40
0.1750099694493956
 40
0.450006646299596
 40
0.450006646299596
 40
0.450006646299596
 40
0.7250033231497996
 40
0.7250033231497996
 40
0.7250033231497996
 40
1.0
 40
1.0
 40
1.0
 40
1.0
 10
142.7631528509163
 20
2.95313159479595
 30
0.0
 10
142.5276550640109
 20
3.582416261336562
 30
0.0
 10
141.5779232777595
 20
4.516323784578432
 30
0.0
 10
141.3101572670172
 20
4.797406553796723
 30
0.0
 10
140.4341118593606
 20
5.717020168917244
 30
0.0
 10
139.5226793771233
 20
6.611286199998304
 30
0.0
 10
138.4583974875925
 20
7.304186290080135
 30
0.0
 10
137.7346246152638
 20
7.775398187387199
 30
0.0
 10
137.0218236068335
 20
8.24658882614652
 30
0.0
 10
136.2306079709101
 20
8.60063822759832
 30
0.0
 10
135.6689846920927
 20
8.851950735438985
 30
0.0
 10
135.0017139096685
 20
8.933214757590138
 30
0.0
 10
134.475831840898
 20
9.245973293512948
 30
0.0
  0
SPLINE
  5
82
330
1F
100
AcDbEntity
  8
1
  6
Continuous
 62
   163
370
    18
100
AcDbSpline
210
0.0
220
0.0
230
1.0
 70
     8
 71
     3
 72
    23
 73
    19
 74
     0
 42
0.000000001
 43
0.0000000001
 40
0.0
 40
0.0
 40
0.0
 40
0.0
 40
0.1931150083408671
 40
0.1931150083408671
 40
0.1931150083408671
 40
0.3862300166817336
 40
0.3862300166817336
 40
0.3862300166817336
 40
0.5793450250226009
 40
0.5793450250226009
 40
0.5793450250226009
 40
0.7724600333634677
 40
0.7724600333634677
 40
0.7724600333634677
 40
0.9655750417043348
 40
0.9655750417043348
 40
0.9655750417043348
 40
1.0
 40
1.0
 40
1.0
 40
1.0
 10
91.14723970891731
 20
6.180360787406358
 30
0.0
 10
91.11971100905023
 20
6.896106983955138
 30
0.0
 10
90.27728386932337
 20
7.536066012288497
 30
0.0
 10
89.820495153816
 20
8.008170043346555
 30
0.0
 10
87.46404404808881
 20
10.44362877566079
 30
0.0
 10
84.88768825161173
 20
12.59079468577638
 30
0.0
 10
82.23112493462206
 20
14.68546008293339
 30
0.0
 10
82.01059954486064
 20
14.85934146576121
 30
0.0
 10
81.6279304649216
 20
15.00347514167336
 30
0.0
 10
81.50493438888502
 20
14.75101098967603
 30
0.0
 10
81.43838219959787
 20
14.61440466390228
 30
0.0
 10
81.51426854082669
 20
14.45458380329945
 30
0.0
 10
81.58620876672138
 20
14.32073655440669
 30
0.0
 10
82.57550058380927
 20
12.48012531886285
 30
0.0
 10
83.06563714416943
 20
10.39229231328077
 30
0.0
 10
84.16054145883447
 20
8.612479805791509
 30
0.0
 10
84.28195240542
 20
8.415121261866922
 30
0.0
 10
84.42203335310711
 20
8.230991452838857
 30
0.0
 10
84.56380022914878
 20
8.050226907301075
 30
0.0
  0
SPLINE
  5
83
330
1F
100
AcDbEntity
  8
1
  6
Continuous
 62
   163
370
    18
100
AcDbSpline
210
0.0
220
0.0
230
1.0
 70
     8
 71
     3
 72
    23
 73
    19
 74
     0
 42
0.000000001
 43
0.0000000001
 40
0.0
 40
0.0
 40
0.0
 40
0.0
 40
0.1666666666666669
 40
0.1666666666666669
 40
0.1666666666666669
 40
0.3333333333333337
 40
0.3333333333333337
 40
0.3333333333333337
 40
0.4999999999999996
 40
0.4999999999999996
 40
0.4999999999999996
 40
0.6666666666666665
 40
0.6666666666666665
 40
0.6666666666666665
 40
0.8333333333333331
 40
0.8333333333333331
 40
0.8333333333333331
 40
1.0
 40
1.0
 40
1.0
 40
1.0
 10
93.3636263534228
 20
2.707767913894304
 30
0.0
 10
93.16141281202607
 20
2.722509822505409
 30
0.0
 10
92.93553723588693
 20
2.706830524894638
 30
0.0
 10
92.7382749096512
 20
2.741710260981325
 30
0.0
 10
92.4951907342548
 20
2.784692172664468
 30
0.0
 10
92.36673421866567
 20
2.961179354582927
 30
0.0
 10
92.17720621661344
 20
3.101412544243326
 30
0.0
 10
91.97543261157674
 20
3.250706347360504
 30
0.0
 10
91.7581384668048
 20
3.359544689892916
 30
0.0
 10
91.50910004985992
 20
3.403275316014449
 30
0.0
 10
91.11406073927789
 20
3.472643394266388
 30
0.0
 10
90.6552896754966
 20
3.483614054037455
 30
0.0
 10
90.41693514589434
 20
3.850175977899801
 30
0.0
 10
90.1933523349504
 20
4.194020692992593
 30
0.0
 10
90.38666522554384
 20
4.70288993992337
 30
0.0
 10
90.58758760462486
 20
5.00262836704036
 30
0.0
 10
90.83412087176426
 20
5.370409666775912
 30
0.0
 10
91.15903439660875
 20
5.737764673351576
 30
0.0
 10
91.14723970891731
 20
6.180360787406358
 30
0.0
  0
SPLINE
  5
84
330
1F
100
AcDbEntity
  8
1
  6
Continuous
 62
   163
370
    18
100
AcDbSpline
210
0.0
220
0.0
230
1.0
 70
     8
 71
     3
 72
    14
 73
    10
 74
     0
 42
0.000000001
 43
0.0000000001
 40
0.0
 40
0.0
 40
0.0
 40
0.0
 40
0.2600450125804752
 40
0.2600450125804752
 40
0.2600450125804752
 40
0.6300225062902376
 40
0.6300225062902376
 40
0.6300225062902376
 40
1.0
 40
1.0
 40
1.0
 40
1.0
 10
90.44396958228192
 20
0.0628806277871291
 30
0.0
 10
91.30038613707147
 20
0.510878756409091
 30
0.0
 10
92.5185654792204
 20
0.4393532973258479
 30
0.0
 10
93.2023549474527
 20
1.162260722678223
 30
0.0
 10
93.47494585012679
 20
1.450445897767314
 30
0.0
 10
93.62230729352801
 20
1.849166496442282
 30
0.0
 10
93.61798913018876
 20
2.244995545641923
 30
0.0
 10
93.61538461812897
 20
2.483740922152183
 30
0.0
 10
93.59092417427517
 20
2.634680028962062
 30
0.0
 10
93.3636263534228
 20
2.707767913894304
 30
0.0
  0
SPLINE
  5
85
330
1F
100
AcDbEntity
  8
1
  6
Continuous
 62
   163
370
    18
100
AcDbSpline
210
0.0
220
0.0
230
1.0
 70
     8
 71
     3
 72
    46
 73
    42
 74
     0
 42
0.000000001
 43
0.0000000001
 40
0.0
 40
0.0
 40
0.0
 40
0.0
 40
0.0714545096225784
 40
0.0714545096225784
 40
0.0714545096225784
 40
0.1429090192451568
 40
0.1429090192451568
 40
0.2143635288677351
 40
0.2143635288677351
 40
0.2143635288677351
 40
0.2858180384903135
 40
0.2858180384903135
 40
0.2858180384903135
 40
0.3572725481128919
 40
0.3572725481128919
 40
0.3572725481128919
 40
0.4287270577354703
 40
0.4287270577354703
 40
0.4287270577354703
 40
0.5001815673580486
 40
0.5001815673580486
 40
0.5001815673580486
 40
0.5716360769806269
 40
0.5716360769806269
 40
0.5716360769806269
 40
0.6430905866032054
 40
0.6430905866032054
 40
0.6430905866032054
 40
0.7145450962257838
 40
0.7145450962257838
 40
0.7145450962257838
 40
0.785999605848362
 40
0.785999605848362
 40
0.785999605848362
 40
0.8574541154709404
 40
0.8574541154709404
 40
0.8574541154709404
 40
0.9289086250935189
 40
0.9289086250935189
 40
0.9289086250935189
 40
1.0
 40
1.0
 40
1.0
 40
1.0
 10
84.56390958282617
 20
8.050312669302583
 30
0.0
 10
84.8531510276163
 20
7.678443721039659
 30
0.0
 10
85.25859455275217
 20
7.547882367198611
 30
0.0
 10
85.36384692027255
 20
7.797276739722994
 30
0.0
 10
85.50743536707571
 20
8.137508046969327
 30
0.0
 10
85.27084588743638
 20
8.346606716138592
 30
0.0
 10
84.95806938176929
 20
8.946612013866005
 30
0.0
 10
83.8733866788797
 20
10.50625857614754
 30
0.0
 10
84.51504682228774
 20
10.75759715449878
 30
0.0
 10
84.64751250349
 20
10.80948402379515
 30
0.0
 10
84.79665144838724
 20
10.75858349796668
 30
0.0
 10
84.92541265392103
 20
10.69808596672617
 30
0.0
 10
86.14836607794989
 20
10.12349004966286
 30
0.0
 10
86.81453739831119
 20
8.741080866558026
 30
0.0
 10
87.99750244081284
 20
8.088111508801228
 30
0.0
 10
88.28659581861749
 20
7.928538647005039
 30
0.0
 10
88.54127045229716
 20
7.812933640379216
 30
0.0
 10
88.71210432501502
 20
7.520872962307624
 30
0.0
 10
88.88982080811252
 20
7.217045649069346
 30
0.0
 10
89.02225582067159
 20
6.8825262150045
 30
0.0
 10
89.11584562734538
 20
6.543774015129078
 30
0.0
 10
89.27536478394197
 20
5.96638778964282
 30
0.0
 10
89.31667235544299
 20
5.356290108341224
 30
0.0
 10
89.2314801675715
 20
4.763145191932869
 30
0.0
 10
89.15254878521228
 20
4.213590715622232
 30
0.0
 10
88.77787012783637
 20
3.880938081197681
 30
0.0
 10
88.26898609089363
 20
3.689705926187484
 30
0.0
 10
88.02119296550653
 20
3.596588418220102
 30
0.0
 10
88.01322613533264
 20
3.243850459478028
 30
0.0
 10
88.2564460009083
 20
3.139369833172609
 30
0.0
 10
89.18216596933219
 20
2.741705761385351
 30
0.0
 10
90.03042133878756
 20
2.206473095027601
 30
0.0
 10
90.89049128886494
 20
1.687038156319638
 30
0.0
 10
91.00596394225182
 20
1.617299025648847
 30
0.0
 10
91.12511599748544
 20
1.544136789517515
 30
0.0
 10
91.20071983717821
 20
1.43241834439794
 30
0.0
 10
91.3588803138407
 20
1.198707429662577
 30
0.0
 10
90.83469589211283
 20
0.8954602357444663
 30
0.0
 10
90.64184025511733
 20
0.7588541595393296
 30
0.0
 10
90.11536283504527
 20
0.3859326536549933
 30
0.0
 10
90.09086217875631
 20
-0.0156092358809014
 30
0.0
 10
90.44396958228086
 20
0.0628806278002332
 30
0.0
  0
SPLINE
  5
86
330
1F
100
AcDbEntity
  8
1
  6
Continuous
 62
   163
370
    18
100
AcDbSpline
210
0.0
220
0.0
230
1.0
 70
     8
 71
     3
 72
    82
 73
    78
 74
     0
 42
0.000000001
 43
0.0000000001
 40
0.0
 40
0.0
 40
0.0
 40
0.0
 40
0.0133333333333333
 40
0.0266666666666667
 40
0.04
 40
0.0533333333333333
 40
0.0666666666666667
 40
0.08
 40
0.0933333333333333
 40
0.1066666666666667
 40
0.12
 40
0.1333333333333333
 40
0.1466666666666667
 40
0.16
 40
0.1733333333333333
 40
0.1866666666666667
 40
0.2
 40
0.2133333333333333
 40
0.2266666666666667
 40
0.24
 40
0.2533333333333334
 40
0.2666666666666667
 40
0.28
 40
0.2933333333333333
 40
0.3066666666666666
 40
0.32
 40
0.3333333333333333
 40
0.3466666666666667
 40
0.36
 40
0.3733333333333334
 40
0.3866666666666667
 40
0.4
 40
0.4133333333333333
 40
0.4266666666666667
 40
0.44
 40
0.4533333333333333
 40
0.4666666666666667
 40
0.48
 40
0.4933333333333333
 40
0.5066666666666667
 40
0.52
 40
0.5333333333333333
 40
0.5466666666666666
 40
0.56
 40
0.5733333333333334
 40
0.5866666666666667
 40
0.6
 40
0.6133333333333333
 40
0.6266666666666667
 40
0.64
 40
0.6533333333333333
 40
0.6666666666666666
 40
0.68
 40
0.6933333333333334
 40
0.7066666666666667
 40
0.72
 40
0.7333333333333333
 40
0.7466666666666667
 40
0.76
 40
0.7733333333333333
 40
0.7866666666666666
 40
0.8
 40
0.8133333333333334
 40
0.8266666666666667
 40
0.84
 40
0.8533333333333334
 40
0.8666666666666667
 40
0.88
 40
0.8933333333333333
 40
0.9066666666666666
 40
0.92
 40
0.9333333333333333
 40
0.9466666666666667
 40
0.96
 40
0.9733333333333334
 40
0.9866666666666667
 40
1.0
 40
1.0
 40
1.0
 40
1.0
 10
89.69078081601866
 20
-2.23003284229201
 30
0.0
 10
89.59744615748582
 20
-2.043306998297082
 30
0.0
 10
89.34435422420945
 20
-1.705513296258399
 30
0.0
 10
89.2059288020051
 20
-2.057095889815129
 30
0.0
 10
89.08072025783909
 20
-2.375109329776332
 30
0.0
 10
89.18658395547219
 20
-2.767851867792288
 30
0.0
 10
89.31317472777826
 20
-3.068839190135241
 30
0.0
 10
89.4639102061333
 20
-3.42723393870558
 30
0.0
 10
89.6916791541807
 20
-3.748374620154982
 30
0.0
 10
89.85324920932742
 20
-4.102017232855498
 30
0.0
 10
90.22392563502652
 20
-4.913349050493603
 30
0.0
 10
90.2173211517614
 20
-5.887991952240233
 30
0.0
 10
88.70501844982367
 20
-7.618271323299623
 30
0.0
 10
88.421712953553
 20
-8.116627845623462
 30
0.0
 10
88.10308186577987
 20
-8.563092004100922
 30
0.0
 10
87.84854677028946
 20
-8.91974521231351
 30
0.0
 10
87.56152133036517
 20
-9.253201047121271
 30
0.0
 10
87.2467214541755
 20
-9.557980742481556
 30
0.0
 10
87.05026162247044
 20
-9.748187195437248
 30
0.0
 10
86.83599460457141
 20
-9.931408989390329
 30
0.0
 10
86.57759666781115
 20
-10.02088225868605
 30
0.0
 10
86.31919873105122
 20
-10.11035552798144
 30
0.0
 10
86.00639532590455
 20
-10.08835635509023
 30
0.0
 10
85.805849593431
 20
-9.902462921029386
 30
0.0
 10
85.51484461829533
 20
-9.632719372919727
 30
0.0
 10
85.56878098984784
 20
-9.16666430388453
 30
0.0
 10
85.64561057781285
 20
-8.777379475749358
 30
0.0
 10
85.8557904391358
 20
-7.712427377002867
 30
0.0
 10
86.06597030019245
 20
-6.647475278251877
 30
0.0
 10
86.27615016124943
 20
-5.582523179501204
 30
0.0
 10
86.36691158014997
 20
-5.122647709251956
 30
0.0
 10
86.45371097437108
 20
-4.625769101251058
 30
0.0
 10
86.25472101334192
 20
-4.201356473422128
 30
0.0
 10
86.12224765711939
 20
-3.91881276810465
 30
0.0
 10
85.95271082893731
 20
-3.673993207938913
 30
0.0
 10
85.81672393462085
 20
-3.474395124344305
 30
0.0
 10
85.55032995746589
 20
-3.176621824465456
 30
0.0
 10
85.33364030042297
 20
-2.833196874510825
 30
0.0
 10
85.18982975995662
 20
-2.460432585771667
 30
0.0
 10
85.0558963298175
 20
-2.113270305770393
 30
0.0
 10
85.01064656265325
 20
-1.661855217489704
 30
0.0
 10
85.14906458861215
 20
-1.421159417280278
 30
0.0
 10
85.3887138214438
 20
-1.217887091184637
 30
0.0
 10
85.82586508902001
 20
-1.194043422267487
 30
0.0
 10
85.88345287774114
 20
-0.8851178004134659
 30
0.0
 10
85.91338859833871
 20
-0.7245297497079257
 30
0.0
 10
85.8067742705511
 20
-0.565979231993148
 30
0.0
 10
85.67314532218165
 20
-0.4720219377076056
 30
0.0
 10
85.53952433075936
 20
-0.3780702381171661
 30
0.0
 10
85.37979278079955
 20
-0.3301318197421257
 30
0.0
 10
85.23320898165302
 20
-0.2580453424752861
 30
0.0
 10
84.78917599414515
 20
-0.0396785964585644
 30
0.0
 10
84.47539593538495
 20
0.3541695396588815
 30
0.0
 10
84.10496331811738
 20
0.6693524029067546
 30
0.0
 10
83.92680069402442
 20
0.820942201670765
 30
0.0
 10
83.72845936090039
 20
0.9507511529450868
 30
0.0
 10
83.51508710359789
 20
1.047076358378248
 30
0.0
 10
83.3062322112125
 20
1.141362235414459
 30
0.0
 10
83.06000488439419
 20
1.212964931090427
 30
0.0
 10
82.9634406327847
 20
1.444946505066588
 30
0.0
 10
82.86496936803073
 20
1.681509526165675
 30
0.0
 10
83.00175819165635
 20
1.959966646649047
 30
0.0
 10
83.20180345058436
 20
2.120093269196387
 30
0.0
 10
83.40184870951272
 20
2.280219891743086
 30
0.0
 10
83.65389405342475
 20
2.356457215387086
 30
0.0
 10
83.88791491473395
 20
2.460826163547446
 30
0.0
 10
84.64979389677663
 20
2.800609782682501
 30
0.0
 10
85.25222086904785
 20
3.480511723025864
 30
0.0
 10
85.49780636957621
 20
4.27775709992239
 30
0.0
 10
85.55139689421523
 20
4.451728305693105
 30
0.0
 10
85.58587478270398
 20
4.63645740999806
 30
0.0
 10
85.57447946388518
 20
4.819101630857678
 30
0.0
 10
85.56699061802493
 20
4.939132886766957
 30
0.0
 10
85.56517435876043
 20
5.114666367323335
 30
0.0
 10
85.46231102677214
 20
5.205069026029727
 30
0.0
 10
85.36868223250622
 20
5.287355801788365
 30
0.0
 10
85.20392779021326
 20
5.269615554380922
 30
0.0
 10
85.1451925029883
 20
5.140939599300197
 30
0.0
  0
SPLINE
  5
87
330
1F
100
AcDbEntity
  8
1
  6
Continuous
 62
   163
370
    18
100
AcDbSpline
210
0.0
220
0.0
230
1.0
 70
     8
 71
     3
 72
    26
 73
    22
 74
     0
 42
0.000000001
 43
0.0000000001
 40
0.0
 40
0.0
 40
0.0
 40
0.0
 40
0.1469470603960382
 40
0.1469470603960382
 40
0.1469470603960382
 40
0.2938941207920778
 40
0.2938941207920778
 40
0.2938941207920778
 40
0.4408411811881174
 40
0.4408411811881174
 40
0.4408411811881174
 40
0.5877882415841571
 40
0.5877882415841571
 40
0.5877882415841571
 40
0.7347353019801967
 40
0.7347353019801967
 40
0.7347353019801967
 40
0.8816823623762362
 40
0.8816823623762362
 40
0.8816823623762362
 40
1.0
 40
1.0
 40
1.0
 40
1.0
 10
84.39304605153855
 20
-14.97360073692777
 30
0.0
 10
84.66321180881413
 20
-14.77761637804854
 30
0.0
 10
84.96253549914088
 20
-14.41670622178501
 30
0.0
 10
85.14696767553086
 20
-14.13865741309581
 30
0.0
 10
85.69775175492323
 20
-13.30829874077712
 30
0.0
 10
86.22729516541206
 20
-12.9072985916157
 30
0.0
 10
86.90821529959831
 20
-12.17983285452128
 30
0.0
 10
87.63427957401508
 20
-11.4041370628294
 30
0.0
 10
88.13813133905614
 20
-10.46823203134194
 30
0.0
 10
88.68696353834663
 20
-9.565772064126529
 30
0.0
 10
89.25785076555344
 20
-8.627046404417069
 30
0.0
 10
89.82873800398629
 20
-7.688320751534541
 30
0.0
 10
90.39962523677552
 20
-6.749595095220206
 30
0.0
 10
90.68434576794782
 20
-6.281421256080333
 30
0.0
 10
90.97369826435586
 20
-5.801874376341106
 30
0.0
 10
91.08854924712148
 20
-5.266092913164963
 30
0.0
 10
91.18965923288549
 20
-4.794413395847054
 30
0.0
 10
91.09510029890389
 20
-4.404897848205621
 30
0.0
 10
90.91158065462108
 20
-4.050366394665702
 30
0.0
 10
90.58596392054642
 20
-3.421325430252632
 30
0.0
 10
89.98029010645645
 20
-2.902417840538365
 30
0.0
 10
89.6905922106315
 20
-2.230114110373785
 30
0.0
  0
SPLINE
  5
88
330
1F
100
AcDbEntity
  8
1
  6
Continuous
 62
   163
370
    18
100
AcDbSpline
210
0.0
220
0.0
230
1.0
 70
     8
 71
     3
 72
    11
 73
     7
 74
     0
 42
0.000000001
 43
0.0000000001
 40
0.0
 40
0.0
 40
0.0
 40
0.0
 40
0.5
 40
0.5
 40
0.5
 40
1.0
 40
1.0
 40
1.0
 40
1.0
 10
83.8949720904724
 20
-13.74911395781882
 30
0.0
 10
83.7732039117234
 20
-14.06576732793322
 30
0.0
 10
83.22837412289846
 20
-14.65369605006299
 30
0.0
 10
83.32616626420162
 20
-14.99724846593735
 30
0.0
 10
83.4456574970857
 20
-15.41703170399803
 30
0.0
 10
84.17072902694726
 20
-15.13482542568449
 30
0.0
 10
84.39304605153855
 20
-14.97360073692777
 30
0.0
  0
SPLINE
  5
89
330
1F
100
AcDbEntity
  8
1
  6
Continuous
 62
   163
370
    18
100
AcDbSpline
210
0.0
220
0.0
230
1.0
 70
     8
 71
     3
 72
    20
 73
    16
 74
     0
 42
0.000000001
 43
0.0000000001
 40
0.0
 40
0.0
 40
0.0
 40
0.0
 40
0.1999999999999997
 40
0.1999999999999997
 40
0.1999999999999997
 40
0.3999999999999999
 40
0.3999999999999999
 40
0.3999999999999999
 40
0.5999999999999999
 40
0.5999999999999999
 40
0.5999999999999999
 40
0.7999999999999997
 40
0.7999999999999997
 40
0.7999999999999997
 40
1.0
 40
1.0
 40
1.0
 40
1.0
 10
85.43760102800613
 20
-4.983209589524706
 30
0.0
 10
85.33784606875005
 20
-5.340664860193349
 30
0.0
 10
85.13085326053542
 20
-5.659438588837347
 30
0.0
 10
85.02538605145067
 20
-6.014952587879247
 30
0.0
 10
84.91870268418177
 20
-6.374566072090668
 30
0.0
 10
84.85902452581773
 20
-6.757143473166846
 30
0.0
 10
84.78013286305176
 20
-7.12406932198668
 30
0.0
 10
84.6102207692412
 20
-7.914332032396859
 30
0.0
 10
84.45211290193502
 20
-8.70713249026086
 30
0.0
 10
84.30587496594313
 20
-9.502116579999335
 30
0.0
 10
84.11014876807295
 20
-10.56613059384883
 30
0.0
 10
83.80269265925696
 20
-11.70261640578306
 30
0.0
 10
83.88005008692915
 20
-12.78840626082327
 30
0.0
 10
83.90263643593865
 20
-13.1054285475627
 30
0.0
 10
84.01465031165125
 20
-13.43786962874308
 30
0.0
 10
83.8949720904724
 20
-13.74911395781882
 30
0.0
  0
SPLINE
  5
8A
330
1F
100
AcDbEntity
  8
1
  6
Continuous
 62
   163
370
    18
100
AcDbSpline
210
0.0
220
0.0
230
1.0
 70
     8
 71
     3
 72
    26
 73
    22
 74
     0
 42
0.000000001
 43
0.0000000001
 40
0.0
 40
0.0
 40
0.0
 40
0.0
 40
0.1428571428571432
 40
0.1428571428571432
 40
0.1428571428571432
 40
0.285714285714286
 40
0.285714285714286
 40
0.285714285714286
 40
0.4285714285714293
 40
0.4285714285714293
 40
0.4285714285714293
 40
0.571428571428572
 40
0.571428571428572
 40
0.571428571428572
 40
0.7142857142857152
 40
0.7142857142857152
 40
0.7142857142857152
 40
0.8571428571428568
 40
0.8571428571428568
 40
0.8571428571428568
 40
1.0
 40
1.0
 40
1.0
 40
1.0
 10
76.2587961930687
 20
0.3546296226249919
 30
0.0
 10
76.68907043624559
 20
0.1851225268251037
 30
0.0
 10
77.146406158191
 20
0.2463197679638852
 30
0.0
 10
77.59735513583209
 20
0.2614981207584938
 30
0.0
 10
78.07192620470535
 20
0.2774715622488217
 30
0.0
 10
78.54649727349616
 20
0.2934450061829498
 30
0.0
 10
79.02106834205208
 20
0.3094184570909237
 30
0.0
 10
79.97021048969042
 20
0.3413653592611796
 30
0.0
 10
80.91935263641753
 20
0.3733122884991315
 30
0.0
 10
81.8684947838934
 20
0.4052591954933045
 30
0.0
 10
82.15939762225368
 20
0.4150506118224089
 30
0.0
 10
82.45828006658151
 20
0.4236858380614849
 30
0.0
 10
82.73276499102224
 20
0.3268439078125381
 30
0.0
 10
83.24620741091447
 20
0.1456945965512164
 30
0.0
 10
83.31611175840209
 20
-0.3788062863408943
 30
0.0
 10
83.54279409045844
 20
-0.8085144664342607
 30
0.0
 10
83.92491406386148
 20
-1.532876514675131
 30
0.0
 10
84.30703436927854
 20
-2.257238387770311
 30
0.0
 10
84.68915451866584
 20
-2.981600343174622
 30
0.0
 10
84.9690589770311
 20
-3.512198222173999
 30
0.0
 10
85.63483752883103
 20
-4.349030542007009
 30
0.0
 10
85.43760102800613
 20
-4.983209589524706
 30
0.0
  0
SPLINE
  5
8B
330
1F
100
AcDbEntity
  8
1
  6
Continuous
 62
   163
370
    18
100
AcDbSpline
210
0.0
220
0.0
230
1.0
 70
     8
 71
     3
 72
    20
 73
    16
 74
     0
 42
0.000000001
 43
0.0000000001
 40
0.0
 40
0.0
 40
0.0
 40
0.0
 40
0.0144870404832923
 40
0.0144870404832923
 40
0.0144870404832923
 40
0.2608652803624696
 40
0.2608652803624696
 40
0.2608652803624696
 40
0.5072435202416461
 40
0.5072435202416461
 40
0.5072435202416461
 40
0.7536217601208234
 40
0.7536217601208234
 40
0.7536217601208234
 40
1.0
 40
1.0
 40
1.0
 40
1.0
 10
85.14519250275971
 20
5.140939598809361
 30
0.0
 10
85.09409622528302
 20
5.03122005529616
 30
0.0
 10
85.03527452163097
 20
4.917273604787504
 30
0.0
 10
84.96811784826087
 20
4.798746260899056
 30
0.0
 10
83.52254396780691
 20
2.247398437273368
 30
0.0
 10
80.20689736354414
 20
2.46359272329328
 30
0.0
 10
77.69929311504234
 20
2.471296342335562
 30
0.0
 10
77.18976939561243
 20
2.472861651785743
 30
0.0
 10
76.27990947394443
 20
2.599568478766672
 30
0.0
 10
75.91580969345819
 20
2.148152191264491
 30
0.0
 10
75.75215617533779
 20
1.945252141481644
 30
0.0
 10
75.77373793961968
 20
1.710089523966105
 30
0.0
 10
75.7691020388967
 20
1.46630335253589
 30
0.0
 10
75.7602261550291
 20
0.9995509616964015
 30
0.0
 10
75.82456566759356
 20
0.5256609500759318
 30
0.0
 10
76.2587961930687
 20
0.3546296226249919
 30
0.0
  0
SPLINE
  5
8C
330
1F
100
AcDbEntity
  8
1
  6
Continuous
 62
   163
370
    18
100
AcDbSpline
210
0.0
220
0.0
230
1.0
 70
     8
 71
     3
 72
    14
 73
    10
 74
     0
 42
0.000000001
 43
0.0000000001
 40
0.0
 40
0.0
 40
0.0
 40
0.0
 40
0.2256834725598963
 40
0.2256834725598963
 40
0.2256834725598963
 40
0.6128417362799491
 40
0.6128417362799491
 40
0.6128417362799491
 40
1.0
 40
1.0
 40
1.0
 40
1.0
 10
313.7280517529721
 20
4.480086924501616
 30
0.0
 10
313.8099163182263
 20
4.998372225551869
 30
0.0
 10
313.8845488959183
 20
5.51780130475086
 30
0.0
 10
313.9519835012188
 20
6.038154241127203
 30
0.0
 10
314.183352707289
 20
7.823493463163557
 30
0.0
 10
314.3296342610457
 20
9.619860546934575
 30
0.0
 10
314.3900461502716
 20
11.41911668200204
 30
0.0
 10
314.4162524647895
 20
12.19962318127021
 30
0.0
 10
314.3835539147906
 20
12.93909368216736
 30
0.0
 10
314.325870943371
 20
13.71348757347957
 30
0.0
  0
SPLINE
  5
8D
330
1F
100
AcDbEntity
  8
1
  6
Continuous
 62
   163
370
    18
100
AcDbSpline
210
0.0
220
0.0
230
1.0
 70
     8
 71
     3
 72
    32
 73
    28
 74
     0
 42
0.000000001
 43
0.0000000001
 40
0.0
 40
0.0
 40
0.0
 40
0.0
 40
0.0864603750319533
 40
0.0864603750319533
 40
0.0864603750319533
 40
0.2006528281529593
 40
0.2006528281529593
 40
0.2006528281529593
 40
0.3148452812739644
 40
0.3148452812739644
 40
0.3148452812739644
 40
0.4290377343949709
 40
0.4290377343949709
 40
0.4290377343949709
 40
0.5432301875159765
 40
0.5432301875159765
 40
0.5432301875159765
 40
0.6574226406369825
 40
0.6574226406369825
 40
0.6574226406369825
 40
0.7716150937579885
 40
0.7716150937579885
 40
0.7716150937579885
 40
0.8858075468789941
 40
0.8858075468789941
 40
0.8858075468789941
 40
1.0
 40
1.0
 40
1.0
 40
1.0
 10
150.4925792628576
 20
-6.038518728664371
 30
0.0
 10
150.7136546775457
 20
-6.844178099516759
 30
0.0
 10
150.9838369624851
 20
-7.638684049213494
 30
0.0
 10
150.7827277423264
 20
-8.474344716906018
 30
0.0
 10
150.2803989836932
 20
-10.56165023929546
 30
0.0
 10
149.7695081249419
 20
-12.60194917665089
 30
0.0
 10
148.9789752277046
 20
-14.60441841737399
 30
0.0
 10
148.7691106051525
 20
-15.1360186238237
 30
0.0
 10
148.5422268732521
 20
-15.6624375686334
 30
0.0
 10
148.3382677432448
 20
-16.19408386375902
 30
0.0
 10
148.1815180518339
 20
-16.60267254864734
 30
0.0
 10
147.9754340109446
 20
-17.00205689261436
 30
0.0
 10
147.5488656481419
 20
-17.17943727222134
 30
0.0
 10
147.142780620717
 20
-17.348300044519
 30
0.0
 10
146.995902531425
 20
-17.27313900212871
 30
0.0
 10
146.7832522507648
 20
-17.72105340387384
 30
0.0
 10
146.6586346879077
 20
-17.98354071844881
 30
0.0
 10
146.6027589669976
 20
-18.526768202694
 30
0.0
 10
146.2881651093106
 20
-18.63577403152429
 30
0.0
 10
145.9680177794162
 20
-18.74670412183036
 30
0.0
 10
145.7223124956614
 20
-18.44285171259022
 30
0.0
 10
145.3753135801377
 20
-18.54782905171497
 30
0.0
 10
145.0065495001941
 20
-18.65939099080297
 30
0.0
 10
144.9061111421001
 20
-19.06556383076033
 30
0.0
 10
144.5135411491124
 20
-19.05255822181998
 30
0.0
 10
144.0596485253957
 20
-19.03752103082115
 30
0.0
 10
143.5433537567409
 20
-18.41113074537084
 30
0.0
 10
143.6559076921619
 20
-17.96944479265265
 30
0.0
  0
SPLINE
  5
8E
330
1F
100
AcDbEntity
  8
1
  6
Continuous
 62
   163
370
    18
100
AcDbSpline
210
0.0
220
0.0
230
1.0
 70
     8
 71
     3
 72
    41
 73
    37
 74
     0
 42
0.000000001
 43
0.0000000001
 40
0.0
 40
0.0
 40
0.0
 40
0.0
 40
0.0884426989750399
 40
0.0884426989750399
 40
0.0884426989750399
 40
0.1768853979500797
 40
0.1768853979500797
 40
0.1768853979500797
 40
0.2653280969251195
 40
0.2653280969251195
 40
0.2653280969251195
 40
0.3537707959001593
 40
0.3537707959001593
 40
0.3537707959001593
 40
0.4422134948751987
 40
0.4422134948751987
 40
0.4422134948751987
 40
0.5306561938502385
 40
0.5306561938502385
 40
0.5306561938502385
 40
0.6190988928252783
 40
0.6190988928252783
 40
0.6190988928252783
 40
0.707541591800318
 40
0.707541591800318
 40
0.707541591800318
 40
0.7959842907753578
 40
0.7959842907753578
 40
0.7959842907753578
 40
0.8844269897503974
 40
0.8844269897503974
 40
0.8844269897503974
 40
0.9728696887254372
 40
0.9728696887254372
 40
0.9728696887254372
 40
1.0
 40
1.0
 40
1.0
 40
1.0
 10
314.325870943371
 20
13.71348757347957
 30
0.0
 10
314.3042976692491
 20
13.98239203232247
 30
0.0
 10
314.2355054593302
 20
14.27354570294265
 30
0.0
 10
314.0252814135555
 20
14.4426044625547
 30
0.0
 10
313.9074127500729
 20
14.53739252531917
 30
0.0
 10
313.7522745357297
 20
14.5819482802424
 30
0.0
 10
313.6468739617054
 20
14.69043107615836
 30
0.0
 10
313.2869807083277
 20
15.06084866372018
 30
0.0
 10
313.6967226216059
 20
15.6574309196439
 30
0.0
 10
313.2225693702342
 20
15.86215277635959
 30
0.0
 10
313.0105862434426
 20
15.95367925895487
 30
0.0
 10
312.7399060192009
 20
15.93417000204144
 30
0.0
 10
312.5170138110346
 20
15.99444443452494
 30
0.0
 10
312.1789589218115
 20
16.08586111868732
 30
0.0
 10
312.2303818663868
 20
16.43439201058401
 30
0.0
 10
311.8114582553804
 20
16.34722221119784
 30
0.0
 10
311.6795513111422
 20
16.31977495932471
 30
0.0
 10
311.5683888719824
 20
16.18466999261717
 30
0.0
 10
311.4981465854034
 20
16.06969205469784
 30
0.0
 10
311.2955199471626
 20
15.73801730196504
 30
0.0
 10
310.8673405210608
 20
15.958994927068
 30
0.0
 10
310.5870303683836
 20
15.90521880190838
 30
0.0
 10
310.2420625300282
 20
15.83903841752249
 30
0.0
 10
310.3527237539016
 20
15.36502882959374
 30
0.0
 10
310.3121526158068
 20
15.11250000284256
 30
0.0
 10
310.116893863822
 20
13.89714184758625
 30
0.0
 10
309.4995707188714
 20
12.70578766534386
 30
0.0
 10
308.94514077843
 20
11.60677471585146
 30
0.0
 10
308.4153309795265
 20
10.55656478436862
 30
0.0
 10
308.1176733690012
 20
9.420333289002118
 30
0.0
 10
307.9656217189805
 20
8.257738320733537
 30
0.0
 10
307.8383906661185
 20
7.284922952766289
 30
0.0
 10
307.7655331607925
 20
6.26830080119846
 30
0.0
 10
307.7961419332404
 20
5.273197630390069
 30
0.0
 10
307.8009463375711
 20
5.117004565430267
 30
0.0
 10
307.8085112271325
 20
4.961069555675129
 30
0.0
 10
307.818660709405
 20
4.805363004695147
 30
0.0
  0
SPLINE
  5
8F
330
1F
100
AcDbEntity
  8
1
  6
Continuous
 62
   163
370
    18
100
AcDbSpline
210
0.0
220
0.0
230
1.0
 70
     8
 71
     3
 72
    14
 73
    10
 74
     0
 42
0.000000001
 43
0.0000000001
 40
0.0
 40
0.0
 40
0.0
 40
0.0
 40
0.1428571428571428
 40
0.2857142857142857
 40
0.4285714285714285
 40
0.5714285714285714
 40
0.7142857142857143
 40
0.8571428571428571
 40
1.0
 40
1.0
 40
1.0
 40
1.0
 10
205.2549280738127
 20
-1.729379069504315
 30
0.0
 10
204.9865242532164
 20
-2.177070064698967
 30
0.0
 10
204.2418978504994
 20
-2.725053770907958
 30
0.0
 10
203.4968900559157
 20
-2.767024214615879
 30
0.0
 10
202.8751982978976
 20
-2.682553191808335
 30
0.0
 10
202.2822333597348
 20
-2.293125803381349
 30
0.0
 10
201.6859953199488
 20
-2.041319450871843
 30
0.0
 10
201.0553015807691
 20
-1.856018842050743
 30
0.0
 10
200.2933380325183
 20
-1.96940612499357
 30
0.0
 10
200.1371364469212
 20
-2.508028274214241
 30
0.0
  0
SPLINE
  5
90
330
1F
100
AcDbEntity
  8
1
  6
Continuous
 62
   163
370
    18
100
AcDbSpline
210
0.0
220
0.0
230
1.0
 70
     8
 71
     5
 72
    35
 73
    29
 74
     0
 42
0.000000001
 43
0.0000000001
 40
0.0
 40
0.0
 40
0.0
 40
0.0
 40
0.0
 40
0.0
 40
0.0416666666666667
 40
0.0833333333333333
 40
0.125
 40
0.1666666666666667
 40
0.2083333333333333
 40
0.25
 40
0.2916666666666667
 40
0.3333333333333333
 40
0.375
 40
0.4166666666666667
 40
0.4583333333333333
 40
0.5
 40
0.5416666666666666
 40
0.5833333333333334
 40
0.625
 40
0.6666666666666666
 40
0.7083333333333334
 40
0.75
 40
0.7916666666666666
 40
0.8333333333333334
 40
0.875
 40
0.9166666666666666
 40
0.9583333333333334
 40
1.0
 40
1.0
 40
1.0
 40
1.0
 40
1.0
 40
1.0
 10
205.7812672371608
 20
0.7956969435071043
 30
0.0
 10
206.2738459218612
 20
1.139670330785917
 30
0.0
 10
206.5417200642724
 20
1.519833533719782
 30
0.0
 10
206.9262152260462
 20
1.9377666231917
 30
0.0
 10
207.364843466322
 20
2.414540517412401
 30
0.0
 10
207.9188911478741
 20
2.988249011575864
 30
0.0
 10
208.4339430409525
 20
3.381216092118891
 30
0.0
 10
208.4339515401714
 20
3.381221366771747
 30
0.0
 10
208.6161623978226
 20
3.468669592919672
 30
0.0
 10
208.8351154456894
 20
3.420819494876028
 30
0.0
 10
208.9492907108173
 20
3.154158263312307
 30
0.0
 10
208.99387552063
 20
3.050028526627686
 30
0.0
 10
208.9808044509776
 20
2.904196770144887
 30
0.0
 10
208.9098146570304
 20
2.815928675776607
 30
0.0
 10
208.6589752259856
 20
2.50403710179611
 30
0.0
 10
208.2505095331804
 20
2.180159268192903
 30
0.0
 10
207.9886472941344
 20
1.931896791528942
 30
0.0
 10
207.4353444632311
 20
1.407329638030322
 30
0.0
 10
206.8797988576555
 20
0.8807561667119219
 30
0.0
 10
206.3947994119725
 20
0.2908227701548805
 30
0.0
 10
206.1629215265083
 20
0.0087760383988417
 30
0.0
 10
205.9393008846352
 20
-0.294492754896538
 30
0.0
 10
205.7529307485817
 20
-0.6073878849636761
 30
0.0
 10
205.6534196840529
 20
-0.7744561081134242
 30
0.0
 10
205.6066960397478
 20
-0.9850412061673947
 30
0.0
 10
205.5321761882919
 20
-1.165558728172426
 30
0.0
 10
205.4522001729124
 20
-1.359293308074387
 30
0.0
 10
205.3627922221674
 20
-1.549464313390005
 30
0.0
 10
205.2549280738127
 20
-1.729379069504315
 30
0.0
  0
SPLINE
  5
91
330
1F
100
AcDbEntity
  8
1
  6
Continuous
 62
   163
370
    18
100
AcDbSpline
210
0.0
220
0.0
230
1.0
 70
     8
 71
     3
 72
     8
 73
     4
 74
     0
 42
0.000000001
 43
0.0000000001
 40
0.0
 40
0.0
 40
0.0
 40
0.0
 40
1.0
 40
1.0
 40
1.0
 40
1.0
 10
235.9388050841972
 20
2.216894896890316
 30
0.0
 10
235.7290508669932
 20
2.309606473965876
 30
0.0
 10
235.684953644782
 20
2.515393510951685
 30
0.0
 10
235.9720114180148
 20
2.645171819000435
 30
0.0
  0
SPLINE
  5
92
330
1F
100
AcDbEntity
  8
1
  6
Continuous
 62
   163
370
    18
100
AcDbSpline
210
0.0
220
0.0
230
1.0
 70
     8
 71
     3
 72
    38
 73
    34
 74
     0
 42
0.000000001
 43
0.0000000001
 40
0.0
 40
0.0
 40
0.0
 40
0.0
 40
0.0928677563152187
 40
0.0928677563152187
 40
0.0928677563152187
 40
0.1857355126304383
 40
0.1857355126304383
 40
0.1857355126304383
 40
0.2786032689456568
 40
0.2786032689456568
 40
0.2786032689456568
 40
0.3714710252608755
 40
0.3714710252608755
 40
0.3714710252608755
 40
0.4643387815760951
 40
0.4643387815760951
 40
0.4643387815760951
 40
0.5572065378913138
 40
0.5572065378913138
 40
0.5572065378913138
 40
0.6500742942065334
 40
0.6500742942065334
 40
0.6500742942065334
 40
0.7429420505217521
 40
0.7429420505217521
 40
0.7429420505217521
 40
0.8358098068369706
 40
0.8358098068369706
 40
0.8358098068369706
 40
0.9286775631521893
 40
0.9286775631521893
 40
0.9286775631521893
 40
1.0
 40
1.0
 40
1.0
 40
1.0
 10
235.9720114180148
 20
2.645171819000435
 30
0.0
 10
236.5771055517114
 20
2.669795395032825
 30
0.0
 10
237.1821996853985
 20
2.694418971063924
 30
0.0
 10
237.7872989703716
 20
2.719042675339959
 30
0.0
 10
238.9528545792878
 20
2.766473398436095
 30
0.0
 10
240.1197823442877
 20
2.696832716040615
 30
0.0
 10
241.2803174407993
 20
2.590584445717528
 30
0.0
 10
242.4540538762377
 20
2.483127578229959
 30
0.0
 10
243.604993039125
 20
2.328041116644829
 30
0.0
 10
244.7866735615183
 20
2.368187121085891
 30
0.0
 10
245.5006216762519
 20
2.392442546847444
 30
0.0
 10
246.2130788109923
 20
2.460437584308445
 30
0.0
 10
246.9187325966143
 20
2.571671055173056
 30
0.0
 10
247.3204476468116
 20
2.634994118469052
 30
0.0
 10
247.7251752982375
 20
2.686212057290423
 30
0.0
 10
248.1207967681779
 20
2.782560157527213
 30
0.0
 10
248.3946131924612
 20
2.849244334948871
 30
0.0
 10
249.0309621803881
 20
2.960791508261132
 30
0.0
 10
249.1433323238598
 20
3.267470353243877
 30
0.0
 10
249.1784961478259
 20
3.363438913805774
 30
0.0
 10
249.1557669270905
 20
3.469852638843539
 30
0.0
 10
249.1317411512372
 20
3.569196585359132
 30
0.0
 10
248.7357188964692
 20
5.206705148530791
 30
0.0
 10
248.0717006607674
 20
6.779081319243714
 30
0.0
 10
247.1741224458453
 20
8.204781590378065
 30
0.0
 10
247.0663873923578
 20
8.3759063931131
 30
0.0
 10
246.9761777291582
 20
8.644661137100481
 30
0.0
 10
247.1532569873033
 20
8.742300656390453
 30
0.0
 10
247.2521723783989
 20
8.79684149498517
 30
0.0
 10
247.3741920459327
 20
8.751516822573441
 30
0.0
 10
247.4774775906983
 20
8.705785885502094
 30
0.0
 10
249.1453387491547
 20
7.967319976702893
 30
0.0
 10
251.123800676302
 20
7.0262722341023
 30
0.0
 10
252.27485565593
 20
5.49510686525001
 30
0.0
  0
SPLINE
  5
93
330
1F
100
AcDbEntity
  8
1
  6
Continuous
 62
   163
370
    18
100
AcDbSpline
210
0.0
220
0.0
230
1.0
 70
     8
 71
     3
 72
    11
 73
     7
 74
     0
 42
0.000000001
 43
0.0000000001
 40
0.0
 40
0.0
 40
0.0
 40
0.0
 40
0.25
 40
0.5
 40
0.75
 40
1.0
 40
1.0
 40
1.0
 40
1.0
 10
202.712969715568
 20
0.6388370168204371
 30
0.0
 10
203.0042400799151
 20
0.8973707168554879
 30
0.0
 10
203.3779391349256
 20
0.8823131815374058
 30
0.0
 10
203.5968749491008
 20
0.8690972150672133
 30
0.0
 10
204.0664761504218
 20
0.8248539668433694
 30
0.0
 10
205.2362136682044
 20
0.4531656628482583
 30
0.0
 10
205.7812672371608
 20
0.7956969435071043
 30
0.0
  0
SPLINE
  5
94
330
1F
100
AcDbEntity
  8
1
  6
Continuous
 62
   163
370
    18
100
AcDbSpline
210
0.0
220
0.0
230
1.0
 70
     8
 71
     3
 72
    38
 73
    34
 74
     0
 42
0.000000001
 43
0.0000000001
 40
0.0
 40
0.0
 40
0.0
 40
0.0
 40
0.0833333333333334
 40
0.0833333333333334
 40
0.1666666666666666
 40
0.1666666666666666
 40
0.1666666666666666
 40
0.25
 40
0.25
 40
0.25
 40
0.3333333333333333
 40
0.3333333333333333
 40
0.3333333333333333
 40
0.4166666666666667
 40
0.4166666666666667
 40
0.4166666666666667
 40
0.5
 40
0.5
 40
0.5
 40
0.5833333333333334
 40
0.5833333333333334
 40
0.5833333333333334
 40
0.6666666666666666
 40
0.6666666666666666
 40
0.6666666666666666
 40
0.75
 40
0.75
 40
0.8333333333333334
 40
0.8333333333333334
 40
0.8333333333333334
 40
0.9166666666666666
 40
0.9166666666666666
 40
1.0
 40
1.0
 40
1.0
 40
1.0
 10
197.4123582788596
 20
-7.291388146018509
 30
0.0
 10
197.1589913502663
 20
-7.334735912445701
 30
0.0
 10
196.9785984550625
 20
-7.129104624174258
 30
0.0
 10
197.0686788084769
 20
-6.822397409045028
 30
0.0
 10
197.1836885943122
 20
-6.70118817886451
 30
0.0
 10
197.2950705377056
 20
-6.586558299876438
 30
0.0
 10
197.7773852004553
 20
-6.090179176467918
 30
0.0
 10
198.2689805189734
 20
-5.590036314541358
 30
0.0
 10
198.6116482330221
 20
-4.988705751090596
 30
0.0
 10
199.048241597298
 20
-4.222549725951871
 30
0.0
 10
199.2202615111617
 20
-3.308841499057212
 30
0.0
 10
199.0921648195686
 20
-2.436373709077119
 30
0.0
 10
199.0247639800517
 20
-1.977305947335719
 30
0.0
 10
198.7850434210592
 20
-1.367623109850339
 30
0.0
 10
199.1497576374495
 20
-0.9807529061123552
 30
0.0
 10
199.6489967127639
 20
-0.4511856062894698
 30
0.0
 10
200.1583448189544
 20
-0.5357581647297515
 30
0.0
 10
200.7452627566785
 20
-0.8690147775536547
 30
0.0
 10
201.4929097195144
 20
-1.29353459268982
 30
0.0
 10
202.393872259463
 20
-1.440898945747653
 30
0.0
 10
203.2378112990468
 20
-1.276704092141317
 30
0.0
 10
203.4169966351516
 20
-1.241842202063765
 30
0.0
 10
203.6078510812094
 20
-1.184065182900297
 30
0.0
 10
203.7149407964762
 20
-1.036232409798179
 30
0.0
 10
203.8135787179347
 20
-0.9000669766760574
 30
0.0
 10
203.8168613391875
 20
-0.708685274620785
 30
0.0
 10
203.6749187120809
 20
-0.4038342473526059
 30
0.0
 10
203.5385718804492
 20
-0.2885767030001637
 30
0.0
 10
203.3864099225055
 20
-0.2170420742610354
 30
0.0
 10
203.1704439506199
 20
-0.115511798048154
 30
0.0
 10
202.9192837655546
 20
-0.0929690685789637
 30
0.0
 10
202.5196936728349
 20
0.1680415634898076
 30
0.0
 10
202.4875018496371
 20
0.438710094369011
 30
0.0
 10
202.712969715568
 20
0.638837016820455
 30
0.0
  0
SPLINE
  5
95
330
1F
100
AcDbEntity
  8
1
  6
Continuous
 62
   163
370
    18
100
AcDbSpline
210
0.0
220
0.0
230
1.0
 70
     8
 71
     3
 72
    47
 73
    43
 74
     0
 42
0.000000001
 43
0.0000000001
 40
0.0
 40
0.0
 40
0.0
 40
0.0
 40
0.0012402784463519
 40
0.0012402784463519
 40
0.0012402784463519
 40
0.0800262485241867
 40
0.0800262485241867
 40
0.0800262485241867
 40
0.1588122186020209
 40
0.1588122186020209
 40
0.1588122186020209
 40
0.237598188679855
 40
0.237598188679855
 40
0.237598188679855
 40
0.3163841587576899
 40
0.3163841587576899
 40
0.3163841587576899
 40
0.395170128835524
 40
0.395170128835524
 40
0.395170128835524
 40
0.4739560989133582
 40
0.4739560989133582
 40
0.4739560989133582
 40
0.552742068991193
 40
0.552742068991193
 40
0.552742068991193
 40
0.631528039069027
 40
0.631528039069027
 40
0.631528039069027
 40
0.7103140091468612
 40
0.7103140091468612
 40
0.7103140091468612
 40
0.789099979224696
 40
0.789099979224696
 40
0.789099979224696
 40
0.8678859493025302
 40
0.8678859493025302
 40
0.8678859493025302
 40
0.946671919380365
 40
0.946671919380365
 40
0.946671919380365
 40
1.0
 40
1.0
 40
1.0
 40
1.0
 10
196.4692842900168
 20
-7.112694526037836
 30
0.0
 10
196.4657896726643
 20
-7.116729864669881
 30
0.0
 10
196.4622538994662
 20
-7.12093215560748
 30
0.0
 10
196.4586754006359
 20
-7.125305473592991
 30
0.0
 10
195.6542054069681
 20
-8.108456023303557
 30
0.0
 10
194.7729971755598
 20
-9.054790097851196
 30
0.0
 10
193.7868167710141
 20
-9.858333802046381
 30
0.0
 10
193.5712405333375
 20
-10.0339861753451
 30
0.0
 10
192.1230428473641
 20
-11.27974168273625
 30
0.0
 10
191.9724289148213
 20
-10.61822917095016
 30
0.0
 10
191.8940535918217
 20
-10.27399636390409
 30
0.0
 10
192.1799612367836
 20
-10.02668124787742
 30
0.0
 10
192.3913275951253
 20
-9.803085983325383
 30
0.0
 10
192.7903588157793
 20
-9.380968234566076
 30
0.0
 10
192.9057844283296
 20
-8.686904595611676
 30
0.0
 10
193.1488870180724
 20
-8.168859865567473
 30
0.0
 10
193.5031846783254
 20
-7.413861591154804
 30
0.0
 10
193.9340334389649
 20
-6.659827764255147
 30
0.0
 10
194.405304145275
 20
-5.973419622135443
 30
0.0
 10
194.8497686637835
 20
-5.326054826694759
 30
0.0
 10
195.4257525485915
 20
-4.752373966142158
 30
0.0
 10
195.7426396994389
 20
-4.02439524697089
 30
0.0
 10
195.9701667428435
 20
-3.50170177331135
 30
0.0
 10
196.1633647559291
 20
-2.964097167516189
 30
0.0
 10
196.3211657490023
 20
-2.416313948837447
 30
0.0
 10
196.4690277715388
 20
-1.90303242222641
 30
0.0
 10
196.6374388687009
 20
-1.368243271972899
 30
0.0
 10
196.4090458449325
 20
-0.8507355087062558
 30
0.0
 10
196.2045068810378
 20
-0.3872778252821166
 30
0.0
 10
195.5514005074562
 20
-0.1631720142803417
 30
0.0
 10
195.1240901566755
 20
0.0462412007176982
 30
0.0
 10
193.5618977520549
 20
0.811829334259133
 30
0.0
 10
191.8011651769371
 20
1.369467745910963
 30
0.0
 10
190.0443286561892
 20
1.221874992756171
 30
0.0
 10
189.5910801485512
 20
1.183797349039439
 30
0.0
 10
189.2413226674697
 20
1.15120249067678
 30
0.0
 10
188.8292654165425
 20
1.138908819951165
 30
0.0
 10
188.6462838994841
 20
1.133449591859617
 30
0.0
 10
188.5010562643567
 20
1.291950107967179
 30
0.0
 10
188.5214496128091
 20
1.473873581150461
 30
0.0
 10
188.5392965911271
 20
1.633081584143655
 30
0.0
 10
188.5637495144144
 20
1.811012720940593
 30
0.0
 10
188.5960832595413
 20
1.978084424389317
 30
0.0
  0
SPLINE
  5
96
330
1F
100
AcDbEntity
  8
1
  6
Continuous
 62
   163
370
    18
100
AcDbSpline
210
0.0
220
0.0
230
1.0
 70
     8
 71
     3
 72
     8
 73
     4
 74
     0
 42
0.000000001
 43
0.0000000001
 40
0.0
 40
0.0
 40
0.0
 40
0.0
 40
1.0
 40
1.0
 40
1.0
 40
1.0
 10
365.7069694850082
 20
-2.657197116405073
 30
0.0
 10
365.5932174473717
 20
-2.450885384305324
 30
0.0
 10
365.4852311373473
 20
-2.207284584744736
 30
0.0
 10
365.5512640095299
 20
-1.967856880735853
 30
0.0
  0
SPLINE
  5
97
330
1F
100
AcDbEntity
  8
1
  6
Continuous
 62
   163
370
    18
100
AcDbSpline
210
0.0
220
0.0
230
1.0
 70
     8
 71
     3
 72
    17
 73
    13
 74
     0
 42
0.000000001
 43
0.0000000001
 40
0.0
 40
0.0
 40
0.0
 40
0.0
 40
0.2500000000000007
 40
0.2500000000000007
 40
0.2500000000000007
 40
0.4999999999999998
 40
0.4999999999999998
 40
0.4999999999999998
 40
0.750000000000001
 40
0.750000000000001
 40
0.750000000000001
 40
1.0
 40
1.0
 40
1.0
 40
1.0
 10
365.5512640095299
 20
-1.967856880735853
 30
0.0
 10
365.6257250026281
 20
-1.697935776749541
 30
0.0
 10
365.1387281326348
 20
-1.126944599421833
 30
0.0
 10
364.9780091753945
 20
-0.9241898156713613
 30
0.0
 10
364.6672019727498
 20
-0.5320914083496546
 30
0.0
 10
364.5298934892206
 20
0.0230121818005774
 30
0.0
 10
364.7162252973462
 20
0.5153952392787078
 30
0.0
 10
364.8261960690521
 20
0.8059937439055566
 30
0.0
 10
365.0500281863802
 20
1.029378502545888
 30
0.0
 10
365.1714650309401
 20
1.305651415455868
 30
0.0
 10
365.5148076614772
 20
2.086767468071175
 30
0.0
 10
365.368971889922
 20
3.040780376571978
 30
0.0
 10
365.0653774319206
 20
3.807299020421283
 30
0.0
  0
SPLINE
  5
98
330
1F
100
AcDbEntity
  8
1
  6
Continuous
 62
   163
370
    18
100
AcDbSpline
210
0.0
220
0.0
230
1.0
 70
     8
 71
     3
 72
    13
 73
     9
 74
     0
 42
0.000000001
 43
0.0000000001
 40
0.0
 40
0.0
 40
0.0
 40
0.0
 40
0.3333333333333326
 40
0.3333333333333326
 40
0.6666666666666683
 40
0.6666666666666683
 40
0.6666666666666683
 40
1.0
 40
1.0
 40
1.0
 40
1.0
 10
236.0472077004455
 20
-0.5866146356973239
 30
0.0
 10
235.8861928567645
 20
-0.3595926806876614
 30
0.0
 10
236.0178127309742
 20
-0.0216514869934951
 30
0.0
 10
236.4770275695017
 20
0.2929605360231547
 30
0.0
 10
236.7687303928189
 20
0.3190583674917286
 30
0.0
 10
237.0459048951501
 20
0.3443376771150585
 30
0.0
 10
238.7100831111364
 20
0.496116704538193
 30
0.0
 10
240.3573012548091
 20
0.7921515489064737
 30
0.0
 10
242.0020177385812
 20
1.087842812959688
 30
0.0
  0
SPLINE
  5
99
330
1F
100
AcDbEntity
  8
1
  6
Continuous
 62
   163
370
    18
100
AcDbSpline
210
0.0
220
0.0
230
1.0
 70
     8
 71
     3
 72
    14
 73
    10
 74
     0
 42
0.000000001
 43
0.0000000001
 40
0.0
 40
0.0
 40
0.0
 40
0.0
 40
0.2846924178638022
 40
0.2846924178638022
 40
0.2846924178638022
 40
0.642346208931902
 40
0.642346208931902
 40
0.642346208931902
 40
1.0
 40
1.0
 40
1.0
 40
1.0
 10
247.5066494553944
 20
-6.875578469683362
 30
0.0
 10
247.2959154361466
 20
-7.992981536854924
 30
0.0
 10
246.7116880906025
 20
-9.02200552325018
 30
0.0
 10
246.04774168692
 20
-9.940287053250204
 30
0.0
 10
245.1512840192591
 20
-11.18014694867877
 30
0.0
 10
244.1536184702843
 20
-12.3472920241414
 30
0.0
 10
243.043618708985
 20
-13.40128674005812
 30
0.0
 10
242.7246765457854
 20
-13.70413667427961
 30
0.0
 10
242.4395513988085
 20
-14.15634896300359
 30
0.0
 10
242.6668200416011
 20
-14.60640627871749
 30
0.0
  0
SPLINE
  5
9A
330
1F
100
AcDbEntity
  8
1
  6
Continuous
 62
   163
370
    18
100
AcDbSpline
210
0.0
220
0.0
230
1.0
 70
     8
 71
     3
 72
    17
 73
    13
 74
     0
 42
0.000000001
 43
0.0000000001
 40
0.0
 40
0.0
 40
0.0
 40
0.0
 40
0.1433466590519303
 40
0.1433466590519303
 40
0.1433466590519303
 40
0.4288977727012866
 40
0.4288977727012866
 40
0.4288977727012866
 40
0.7144488863506437
 40
0.7144488863506437
 40
0.7144488863506437
 40
1.0
 40
1.0
 40
1.0
 40
1.0
 10
247.4734610465492
 20
-4.563090277424936
 30
0.0
 10
247.4002520297308
 20
-4.084900092782444
 30
0.0
 10
247.2980021396406
 20
-3.61085099431158
 30
0.0
 10
247.1825528179349
 20
-3.139943521883967
 30
0.0
 10
247.0400655954177
 20
-2.558750866808894
 30
0.0
 10
246.873322981675
 20
-1.983946549754614
 30
0.0
 10
246.7105788329182
 20
-1.408212393309837
 30
0.0
 10
246.698025019796
 20
-1.363801217465394
 30
0.0
 10
246.6858604267188
 20
-1.318040197310351
 30
0.0
 10
246.6736663974593
 20
-1.271414418346233
 30
0.0
 10
246.5723511622245
 20
-0.8840197628782742
 30
0.0
 10
246.4690038669742
 20
-0.4369284460116751
 30
0.0
 10
246.1234979908982
 20
-0.208368488895775
 30
0.0
  0
SPLINE
  5
9B
330
1F
100
AcDbEntity
  8
1
  6
Continuous
 62
   163
370
    18
100
AcDbSpline
210
0.0
220
0.0
230
1.0
 70
     8
 71
     3
 72
    11
 73
     7
 74
     0
 42
0.000000001
 43
0.0000000001
 40
0.0
 40
0.0
 40
0.0
 40
0.0
 40
0.5
 40
0.5
 40
0.5
 40
1.0
 40
1.0
 40
1.0
 40
1.0
 10
365.0653774319206
 20
3.807299020421283
 30
0.0
 10
364.6834107121896
 20
4.771784649723755
 30
0.0
 10
364.1293322632069
 20
5.67610797508454
 30
0.0
 10
363.6429606363534
 20
6.590992481989153
 30
0.0
 10
363.1446831028271
 20
7.52827247611277
 30
0.0
 10
362.6344315525436
 20
8.46095101205619
 30
0.0
 10
362.0533553741479
 20
9.350092565935975
 30
0.0
  0
SPLINE
  5
9C
330
1F
100
AcDbEntity
  8
1
  6
Continuous
 62
   163
370
    18
100
AcDbSpline
210
0.0
220
0.0
230
1.0
 70
     8
 71
     3
 72
    16
 73
    12
 74
     0
 42
0.000000001
 43
0.0000000001
 40
0.0
 40
0.0
 40
0.0
 40
0.0
 40
0.3296105172356842
 40
0.3296105172356842
 40
0.3296105172356842
 40
0.6592210344713684
 40
0.6592210344713684
 40
0.6592210344713684
 40
0.988831551707051
 40
0.988831551707051
 40
1.0
 40
1.0
 40
1.0
 40
1.0
 10
384.598202372916
 20
-6.651365296849968
 30
0.0
 10
384.7084896683469
 20
-6.088900090136157
 30
0.0
 10
384.9136425922712
 20
-5.524101969454246
 30
0.0
 10
385.0913805276887
 20
-4.978500188142584
 30
0.0
 10
385.3603889886171
 20
-4.152725459040687
 30
0.0
 10
385.672704135145
 20
-3.34105790270434
 30
0.0
 10
386.0266793307721
 20
-2.54798007283291
 30
0.0
 10
386.356280277415
 20
-1.809512500199919
 30
0.0
 10
386.7026149660852
 20
-1.048286917232372
 30
0.0
 10
387.1945758709498
 20
-0.3671773079236343
 30
0.0
 10
387.2106639556955
 20
-0.3450443501432018
 30
0.0
 10
387.2261979535819
 20
-0.323799492448807
 30
0.0
  0
SPLINE
  5
9D
330
1F
100
AcDbEntity
  8
1
  6
Continuous
 62
   163
370
    18
100
AcDbSpline
210
0.0
220
0.0
230
1.0
 70
     8
 71
     3
 72
     8
 73
     4
 74
     0
 42
0.000000001
 43
0.0000000001
 40
0.0
 40
0.0
 40
0.0
 40
0.0
 40
1.0
 40
1.0
 40
1.0
 40
1.0
 10
242.0020177385812
 20
1.087842812959688
 30
0.0
 10
242.2848379023916
 20
1.133680548334362
 30
0.0
 10
242.2113425320393
 20
1.545254622305318
 30
0.0
 10
241.873624549638
 20
1.62183347314189
 30
0.0
  0
SPLINE
  5
9E
330
1F
100
AcDbEntity
  8
1
  6
Continuous
 62
   163
370
    18
100
AcDbSpline
210
0.0
220
0.0
230
1.0
 70
     8
 71
     3
 72
    23
 73
    19
 74
     0
 42
0.000000001
 43
0.0000000001
 40
0.0
 40
0.0
 40
0.0
 40
0.0
 40
0.1671984302616548
 40
0.1671984302616548
 40
0.1671984302616548
 40
0.3343968605233097
 40
0.3343968605233097
 40
0.3343968605233097
 40
0.5015952907849646
 40
0.5015952907849646
 40
0.5015952907849646
 40
0.6687937210466195
 40
0.6687937210466195
 40
0.6687937210466195
 40
0.8359921513082743
 40
0.8359921513082743
 40
0.8359921513082743
 40
1.0
 40
1.0
 40
1.0
 40
1.0
 10
307.3996166150851
 20
-0.6490788197023971
 30
0.0
 10
306.3016098281319
 20
-0.2831673617417624
 30
0.0
 10
304.8046788813741
 20
-0.295863474956623
 30
0.0
 10
303.7416665907313
 20
-0.2333333402128966
 30
0.0
 10
302.2423610355505
 20
-0.1451388957904517
 30
0.0
 10
300.7824201521289
 20
0.38563268065097
 30
0.0
 10
300.6107639917614
 20
2.103819454766317
 30
0.0
 10
300.5366762936782
 20
2.845397867674623
 30
0.0
 10
301.1708515301702
 20
3.604062631736814
 30
0.0
 10
301.8728744521463
 20
3.809854557626438
 30
0.0
 10
301.9573055224955
 20
3.834604793022146
 30
0.0
 10
302.0427179724794
 20
3.851358025420401
 30
0.0
 10
302.1279977268392
 20
3.859122745067371
 30
0.0
 10
303.3314948639322
 20
3.968701131351608
 30
0.0
 10
304.6709181110958
 20
3.443612805677686
 30
0.0
 10
305.8164859816904
 20
3.130914158626921
 30
0.0
 10
306.2801617147004
 20
3.004347432984358
 30
0.0
 10
306.7468491033387
 20
2.866904178207605
 30
0.0
 10
307.221611469738
 20
2.787013887094642
 30
0.0
  0
SPLINE
  5
9F
330
1F
100
AcDbEntity
  8
1
  6
Continuous
 62
   163
370
    18
100
AcDbSpline
210
0.0
220
0.0
230
1.0
 70
     8
 71
     3
 72
    26
 73
    22
 74
     0
 42
0.000000001
 43
0.0000000001
 40
0.0
 40
0.0
 40
0.0
 40
0.0
 40
0.1428571428571437
 40
0.1428571428571437
 40
0.1428571428571437
 40
0.285714285714286
 40
0.285714285714286
 40
0.285714285714286
 40
0.4285714285714279
 40
0.4285714285714279
 40
0.4285714285714279
 40
0.5714285714285721
 40
0.5714285714285721
 40
0.5714285714285721
 40
0.7142857142857144
 40
0.7142857142857144
 40
0.7142857142857144
 40
0.8571428571428563
 40
0.8571428571428563
 40
0.8571428571428563
 40
1.0
 40
1.0
 40
1.0
 40
1.0
 10
246.1234979908982
 20
-0.208368488895775
 30
0.0
 10
245.8938837938902
 20
-0.0564638026448842
 30
0.0
 10
245.5679855819634
 20
-0.0182229954811645
 30
0.0
 10
245.3031508652319
 20
0.0250724312026614
 30
0.0
 10
244.9527617879237
 20
0.0823543646086555
 30
0.0
 10
244.5984025140378
 20
0.1175699870545645
 30
0.0
 10
244.2442803484654
 20
0.1415679734441129
 30
0.0
 10
244.0717436516081
 20
0.1532603601553072
 30
0.0
 10
243.898367019227
 20
0.1641795784931392
 30
0.0
 10
243.7253471613133
 20
0.1635416536198548
 30
0.0
 10
242.2162084863469
 20
0.1579774535933089
 30
0.0
 10
241.8802024959097
 20
-0.0842187561663627
 30
0.0
 10
240.3765713964182
 20
-0.2137268448649868
 30
0.0
 10
239.645877120347
 20
-0.2766617091072981
 30
0.0
 10
238.9151828219119
 20
-0.3395963137000774
 30
0.0
 10
238.1844885234621
 20
-0.4025309181173523
 30
0.0
 10
237.8191413742314
 20
-0.4339982203264842
 30
0.0
 10
237.4537942249976
 20
-0.4654655224903548
 30
0.0
 10
237.0884470757617
 20
-0.49693282463313
 30
0.0
 10
236.9650388140839
 20
-0.507561962058322
 30
0.0
 10
236.1028599347447
 20
-0.6621426679609549
 30
0.0
 10
236.0472077004455
 20
-0.5866146356973239
 30
0.0
  0
SPLINE
  5
A0
330
1F
100
AcDbEntity
  8
1
  6
Continuous
 62
   163
370
    18
100
AcDbSpline
210
0.0
220
0.0
230
1.0
 70
     8
 71
     3
 72
    11
 73
     7
 74
     0
 42
0.000000001
 43
0.0000000001
 40
0.0
 40
0.0
 40
0.0
 40
0.0
 40
0.5000000000000007
 40
0.5000000000000007
 40
0.5000000000000007
 40
1.0
 40
1.0
 40
1.0
 40
1.0
 10
387.2262883020433
 20
-0.3238655541536531
 30
0.0
 10
387.3283123381191
 20
-0.1878095919334889
 30
0.0
 10
387.6071248343026
 20
0.0880279045578983
 30
0.0
 10
387.7975049454865
 20
0.0581436094328792
 30
0.0
 10
388.0854420920193
 20
0.0129456178416323
 30
0.0
 10
387.8854410755391
 20
-0.6892767243133514
 30
0.0
 10
387.8319726727842
 20
-0.8577928930981437
 30
0.0
  0
SPLINE
  5
A1
330
1F
100
AcDbEntity
  8
1
  6
Continuous
 62
   163
370
    18
100
AcDbSpline
210
0.0
220
0.0
230
1.0
 70
     8
 71
     3
 72
    71
 73
    67
 74
     0
 42
0.000000001
 43
0.0000000001
 40
0.0
 40
0.0
 40
0.0
 40
0.0
 40
0.0434782608695653
 40
0.0434782608695653
 40
0.0434782608695653
 40
0.0869565217391305
 40
0.0869565217391305
 40
0.0869565217391305
 40
0.1304347826086957
 40
0.1304347826086957
 40
0.1304347826086957
 40
0.1739130434782609
 40
0.1739130434782609
 40
0.1739130434782609
 40
0.2173913043478262
 40
0.2173913043478262
 40
0.2173913043478262
 40
0.2608695652173914
 40
0.2608695652173914
 40
0.2608695652173914
 40
0.3043478260869565
 40
0.3043478260869565
 40
0.3043478260869565
 40
0.3478260869565217
 40
0.3478260869565217
 40
0.3478260869565217
 40
0.3913043478260869
 40
0.3913043478260869
 40
0.3913043478260869
 40
0.4347826086956521
 40
0.4347826086956521
 40
0.4782608695652174
 40
0.4782608695652174
 40
0.4782608695652174
 40
0.5217391304347827
 40
0.5217391304347827
 40
0.5652173913043478
 40
0.5652173913043478
 40
0.5652173913043478
 40
0.6086956521739131
 40
0.6086956521739131
 40
0.6086956521739131
 40
0.6521739130434782
 40
0.6521739130434782
 40
0.6521739130434782
 40
0.6956521739130435
 40
0.6956521739130435
 40
0.6956521739130435
 40
0.7391304347826088
 40
0.7391304347826088
 40
0.7391304347826088
 40
0.782608695652174
 40
0.782608695652174
 40
0.782608695652174
 40
0.8260869565217391
 40
0.8260869565217391
 40
0.8695652173913043
 40
0.8695652173913043
 40
0.8695652173913043
 40
0.9130434782608696
 40
0.9130434782608696
 40
0.9130434782608696
 40
0.9565217391304347
 40
0.9565217391304347
 40
0.9565217391304347
 40
1.0
 40
1.0
 40
1.0
 40
1.0
 10
387.8319726727842
 20
-0.8577928930981437
 30
0.0
 10
387.5828185408751
 20
-1.642978329838223
 30
0.0
 10
387.3336782532114
 20
-2.428120160326261
 30
0.0
 10
387.0845379490587
 20
-3.213261985582029
 30
0.0
 10
386.982446482366
 20
-3.534993472483552
 30
0.0
 10
386.9144741371207
 20
-3.961606651573819
 30
0.0
 10
387.1983645407699
 20
-4.144199243261541
 30
0.0
 10
387.4735446679217
 20
-4.321189560481571
 30
0.0
 10
387.8251608796446
 20
-4.102438693015572
 30
0.0
 10
388.0764879864058
 20
-3.89295281589197
 30
0.0
 10
388.3009838148072
 20
-3.705831314637031
 30
0.0
 10
388.5254796263637
 20
-3.518709824622341
 30
0.0
 10
388.7499753843728
 20
-3.331588270365961
 30
0.0
 10
388.8525693886095
 20
-3.246074184485633
 30
0.0
 10
388.9800302981861
 20
-3.154898964497072
 30
0.0
 10
389.1078365081008
 20
-3.193677276592744
 30
0.0
 10
389.2518340245664
 20
-3.237368272814511
 30
0.0
 10
389.2991386499955
 20
-3.413785796855851
 30
0.0
 10
389.3233240354878
 20
-3.562304297954933
 30
0.0
 10
389.3233256429195
 20
-3.562314168930776
 30
0.0
 10
389.3789980091878
 20
-3.904189456290185
 30
0.0
 10
389.3789996166178
 20
-3.904199327266316
 30
0.0
 10
389.3953612658225
 20
-4.004673654094872
 30
0.0
 10
389.4628457223079
 20
-4.091780328963516
 30
0.0
 10
389.5563459319776
 20
-4.132048465412349
 30
0.0
 10
390.0394826020781
 20
-4.340123007959044
 30
0.0
 10
390.392255950818
 20
-4.439466901664766
 30
0.0
 10
390.9390673977543
 20
-4.572284266673495
 30
0.0
 10
391.1835610375942
 20
-4.631670369848305
 30
0.0
 10
391.4357523153307
 20
-4.682102029276352
 30
0.0
 10
391.9351355396224
 20
-4.620200559303154
 30
0.0
 10
392.1851262418604
 20
-4.495081383104091
 30
0.0
 10
392.3087281768769
 20
-4.275932095780922
 30
0.0
 10
392.4349182152795
 20
-4.052194037153255
 30
0.0
 10
392.4088825669543
 20
-3.767332951549494
 30
0.0
 10
392.1951341882443
 20
-3.300168944715506
 30
0.0
 10
392.0171977377661
 20
-3.107581112081856
 30
0.0
 10
391.8391664039135
 20
-2.922412296667421
 30
0.0
 10
391.765241498748
 20
-2.845523656769704
 30
0.0
 10
391.6894854981046
 20
-2.767323385863794
 30
0.0
 10
391.6434354877371
 20
-2.671114485887904
 30
0.0
 10
391.5515985982819
 20
-2.479246426767254
 30
0.0
 10
391.5928241104764
 20
-2.253994341313206
 30
0.0
 10
391.6211774866999
 20
-2.043178174435075
 30
0.0
 10
391.7984448656809
 20
-0.7251401018362642
 30
0.0
 10
391.356790131485
 20
0.6630136435166745
 30
0.0
 10
390.450511832116
 20
1.636311039240746
 30
0.0
 10
390.0093912634735
 20
2.110052384431297
 30
0.0
 10
389.6240800861057
 20
1.645058042916526
 30
0.0
 10
389.5255447917912
 20
1.175120163576157
 30
0.0
 10
389.4363328824427
 20
0.7496476891412986
 30
0.0
 10
389.4847872334075
 20
0.3172473721208477
 30
0.0
 10
389.4630506804164
 20
-0.1127195859505652
 30
0.0
 10
389.4548832399411
 20
-0.2742782994139617
 30
0.0
 10
389.4361711790378
 20
-0.4404864241101709
 30
0.0
 10
389.2796366274732
 20
-0.7236325784996701
 30
0.0
 10
389.1286143854194
 20
-0.8357469025377304
 30
0.0
 10
388.9672976611042
 20
-0.8236426462118489
 30
0.0
 10
388.633307608503
 20
-0.7985820009244887
 30
0.0
 10
388.558032132715
 20
-0.3698223474207715
 30
0.0
 10
388.5328374715868
 20
-0.1067917350059952
 30
0.0
 10
388.4884959985746
 20
0.3561303397341571
 30
0.0
 10
388.4718218720374
 20
0.8220909444202791
 30
0.0
 10
388.4310303568247
 20
1.285492973764432
 30
0.0
 10
388.3922916224344
 20
1.725574888768719
 30
0.0
 10
388.3636610232124
 20
2.183937233165879
 30
0.0
 10
388.5116722613169
 20
2.6082997732257
 30
0.0
  0
SPLINE
  5
A2
330
1F
100
AcDbEntity
  8
1
  6
Continuous
 62
   163
370
    18
100
AcDbSpline
210
0.0
220
0.0
230
1.0
 70
     8
 71
     3
 72
     8
 73
     4
 74
     0
 42
0.000000001
 43
0.0000000001
 40
0.0
 40
0.0
 40
0.0
 40
0.0
 40
1.0
 40
1.0
 40
1.0
 40
1.0
 10
241.873624549638
 20
1.62183347314189
 30
0.0
 10
239.8953513948616
 20
1.820187281308502
 30
0.0
 10
237.9170782395294
 20
2.018541089099726
 30
0.0
 10
235.9388050841972
 20
2.216894896890316
 30
0.0
  0
SPLINE
  5
A3
330
1F
100
AcDbEntity
  8
1
  6
Continuous
 62
   163
370
    18
100
AcDbSpline
210
0.0
220
0.0
230
1.0
 70
     8
 71
     3
 72
    39
 73
    35
 74
     0
 42
0.000000001
 43
0.0000000001
 40
0.0
 40
0.0
 40
0.0
 40
0.0
 40
0.0650798810887446
 40
0.0650798810887446
 40
0.0650798810887446
 40
0.1500726191715861
 40
0.1500726191715861
 40
0.2350653572544275
 40
0.2350653572544275
 40
0.2350653572544275
 40
0.3200580953372687
 40
0.3200580953372687
 40
0.3200580953372687
 40
0.4050508334201102
 40
0.4050508334201102
 40
0.4050508334201102
 40
0.4900435715029516
 40
0.4900435715029516
 40
0.575036309585793
 40
0.575036309585793
 40
0.575036309585793
 40
0.6600290476686345
 40
0.6600290476686345
 40
0.6600290476686345
 40
0.7450217857514757
 40
0.7450217857514757
 40
0.7450217857514757
 40
0.8300145238343172
 40
0.8300145238343172
 40
0.8300145238343172
 40
0.9150072619171586
 40
0.9150072619171586
 40
0.9150072619171586
 40
1.0
 40
1.0
 40
1.0
 40
1.0
 10
307.2216114701706
 20
2.787013882862194
 30
0.0
 10
308.0433418420745
 20
2.605938843967297
 30
0.0
 10
309.0649437904359
 20
2.385733381997268
 30
0.0
 10
309.9515929503879
 20
2.338744944202053
 30
0.0
 10
310.0683736212061
 20
2.332556091232608
 30
0.0
 10
310.190074974353
 20
2.326461632946218
 30
0.0
 10
310.3943413797588
 20
2.212534711045228
 30
0.0
 10
310.4690072855088
 20
2.087390860753199
 30
0.0
 10
310.4284840300702
 20
1.977691760473697
 30
0.0
 10
310.3859748928048
 20
1.862616748330739
 30
0.0
 10
310.2479712674668
 20
1.820304671654796
 30
0.0
 10
310.1278799707254
 20
1.795257387498283
 30
0.0
 10
308.9606914705669
 20
1.551818413809493
 30
0.0
 10
307.7401680863535
 20
1.503188942540312
 30
0.0
 10
306.5794258998398
 20
1.775712911675219
 30
0.0
 10
305.8669538148695
 20
1.942990126848315
 30
0.0
 10
305.1776966065246
 20
2.229932856524956
 30
0.0
 10
303.7186817981932
 20
2.346844547054215
 30
0.0
 10
302.8997090081168
 20
2.113963326982559
 30
0.0
 10
302.5290278713201
 20
1.482937438192934
 30
0.0
 10
302.4149161600439
 20
1.28868033449564
 30
0.0
 10
302.3512959765007
 20
1.04237940566412
 30
0.0
 10
302.4482675549447
 20
0.839022951319629
 30
0.0
 10
302.6061817232241
 20
0.5078654527274317
 30
0.0
 10
303.0583575307352
 20
0.4824686388978094
 30
0.0
 10
303.4251102823504
 20
0.4921946054218331
 30
0.0
 10
304.0785434101592
 20
0.5095230881633183
 30
0.0
 10
304.7330583755909
 20
0.4859566134257954
 30
0.0
 10
305.3835531924922
 20
0.4216789145475612
 30
0.0
 10
305.9434810233138
 20
0.3663504606260665
 30
0.0
 10
306.6565305320705
 20
0.3069563114821323
 30
0.0
 10
307.1922742287576
 20
0.1304687430296384
 30
0.0
 10
307.5357553014169
 20
0.0173173616919639
 30
0.0
 10
308.5275953819374
 20
-0.239816644881527
 30
0.0
 10
308.4417918373269
 20
-0.7396468996792894
 30
0.0
  0
SPLINE
  5
A4
330
1F
100
AcDbEntity
  8
1
  6
Continuous
 62
   163
370
    18
100
AcDbSpline
210
0.0
220
0.0
230
1.0
 70
     8
 71
     3
 72
     8
 73
     4
 74
     0
 42
0.000000001
 43
0.0000000001
 40
0.0
 40
0.0
 40
0.0
 40
0.0
 40
1.0
 40
1.0
 40
1.0
 40
1.0
 10
310.2246943659737
 20
-15.03864513844399
 30
0.0
 10
309.9801063906461
 20
-14.80530346753139
 30
0.0
 10
310.4418920372626
 20
-14.07401462529028
 30
0.0
 10
310.1461285691244
 20
-13.94360333237753
 30
0.0
  0
SPLINE
  5
A5
330
1F
100
AcDbEntity
  8
1
  6
Continuous
 62
   163
370
    18
100
AcDbSpline
210
0.0
220
0.0
230
1.0
 70
     8
 71
     3
 72
    47
 73
    43
 74
     0
 42
0.000000001
 43
0.0000000001
 40
0.0
 40
0.0
 40
0.0
 40
0.0
 40
0.0370950297501463
 40
0.0370950297501463
 40
0.0370950297501463
 40
0.1111646428462894
 40
0.1111646428462894
 40
0.1111646428462894
 40
0.1852342559424316
 40
0.1852342559424316
 40
0.1852342559424316
 40
0.2593038690385736
 40
0.2593038690385736
 40
0.2593038690385736
 40
0.3333734821347165
 40
0.3333734821347165
 40
0.3333734821347165
 40
0.4074430952308596
 40
0.4074430952308596
 40
0.4074430952308596
 40
0.4815127083270025
 40
0.4815127083270025
 40
0.4815127083270025
 40
0.5555823214231449
 40
0.5555823214231449
 40
0.5555823214231449
 40
0.6296519345192868
 40
0.6296519345192868
 40
0.6296519345192868
 40
0.7037215476154298
 40
0.7037215476154298
 40
0.7037215476154298
 40
0.7777911607115728
 40
0.7777911607115728
 40
0.7777911607115728
 40
0.8518607738077151
 40
0.8518607738077151
 40
0.8518607738077151
 40
0.9259303869038578
 40
0.9259303869038578
 40
0.9259303869038578
 40
1.0
 40
1.0
 40
1.0
 40
1.0
 10
388.5118640957093
 20
2.608236414158638
 30
0.0
 10
388.5755669838712
 20
2.80111194679496
 30
0.0
 10
388.632816382887
 20
2.995656560007692
 30
0.0
 10
388.6654365526183
 20
3.190643338866478
 30
0.0
 10
388.7393890199477
 20
3.632693564599228
 30
0.0
 10
388.677156841232
 20
4.090237863193062
 30
0.0
 10
388.7618776735535
 20
4.535020324854256
 30
0.0
 10
388.883162295297
 20
5.17176185751523
 30
0.0
 10
388.9632301776116
 20
5.811889148582342
 30
0.0
 10
389.1096022417458
 20
6.445267962336721
 30
0.0
 10
389.1621252854293
 20
6.672544822165061
 30
0.0
 10
389.2015640125493
 20
6.902616157781101
 30
0.0
 10
389.2544073824594
 20
7.12982880129177
 30
0.0
 10
389.2834363085212
 20
7.254645576603172
 30
0.0
 10
389.3159464783091
 20
7.378663471622596
 30
0.0
 10
389.3541841844304
 20
7.50099539912202
 30
0.0
 10
389.3810024543454
 20
7.586793711408197
 30
0.0
 10
389.4071001242175
 20
7.757986593826184
 30
0.0
 10
389.4720042366851
 20
7.822585449300922
 30
0.0
 10
389.6791087577092
 20
8.028715916433955
 30
0.0
 10
389.9698803328953
 20
7.530252806463876
 30
0.0
 10
390.0619693571258
 20
7.395499894167529
 30
0.0
 10
390.1733743385216
 20
7.232482142455588
 30
0.0
 10
390.4156785887532
 20
6.972365764529122
 30
0.0
 10
390.6273986532585
 20
6.977067882412392
 30
0.0
 10
390.8101067649561
 20
6.981125670139969
 30
0.0
 10
390.9964121996634
 20
7.06937591388157
 30
0.0
 10
391.1687709568583
 20
7.123817979389605
 30
0.0
 10
391.3716940062883
 20
7.187914229153492
 30
0.0
 10
391.5752685673372
 20
7.250729955895964
 30
0.0
 10
391.7828415531021
 20
7.298208122499222
 30
0.0
 10
392.0149090286089
 20
7.351288913454317
 30
0.0
 10
392.2841426618409
 20
7.289178219315392
 30
0.0
 10
392.1844563638332
 20
7.000144948372407
 30
0.0
 10
392.0708556192071
 20
6.670767737491423
 30
0.0
 10
391.9340136065227
 20
6.348236760124102
 30
0.0
 10
391.8121098828806
 20
6.021780860773272
 30
0.0
 10
391.5747149234072
 20
5.386041584885544
 30
0.0
 10
391.3498635621256
 20
4.733328869749781
 30
0.0
 10
391.1927370728968
 20
4.079227221960338
 30
0.0
 10
391.1040782642089
 20
3.710149588148387
 30
0.0
 10
390.9197841411267
 20
3.012554846518897
 30
0.0
 10
390.9990450411391
 20
2.632986103514916
 30
0.0
  0
SPLINE
  5
A6
330
1F
100
AcDbEntity
  8
1
  6
Continuous
 62
   163
370
    18
100
AcDbSpline
210
0.0
220
0.0
230
1.0
 70
     8
 71
     3
 72
    11
 73
     7
 74
     0
 42
0.000000001
 43
0.0000000001
 40
0.0
 40
0.0
 40
0.0
 40
0.0
 40
0.5
 40
0.5
 40
0.5
 40
1.0
 40
1.0
 40
1.0
 40
1.0
 10
390.9990450411391
 20
2.632986103514916
 30
0.0
 10
391.029190764696
 20
2.462914325969276
 30
0.0
 10
391.1160327330364
 20
2.308810446319483
 30
0.0
 10
391.1485836975522
 20
2.268628628509656
 30
0.0
 10
391.2940811332517
 20
2.089022538801256
 30
0.0
 10
391.4260056899456
 20
1.899588851477757
 30
0.0
 10
391.5571870528569
 20
1.730914797181776
 30
0.0
  0
SPLINE
  5
A7
330
1F
100
AcDbEntity
  8
1
  6
Continuous
 62
   163
370
    18
100
AcDbSpline
210
0.0
220
0.0
230
1.0
 70
     8
 71
     3
 72
     8
 73
     4
 74
     0
 42
0.000000001
 43
0.0000000001
 40
0.0
 40
0.0
 40
0.0
 40
0.0
 40
1.0
 40
1.0
 40
1.0
 40
1.0
 10
242.6668200416011
 20
-14.60640627871749
 30
0.0
 10
242.8140045689259
 20
-14.82951389211929
 30
0.0
 10
243.6873865154128
 20
-14.26697690029283
 30
0.0
 10
244.830038560483
 20
-13.5965774677483
 30
0.0
  0
SPLINE
  5
A8
330
1F
100
AcDbEntity
  8
1
  6
Continuous
 62
   163
370
    18
100
AcDbSpline
210
0.0
220
0.0
230
1.0
 70
     8
 71
     3
 72
    11
 73
     7
 74
     0
 42
0.000000001
 43
0.0000000001
 40
0.0
 40
0.0
 40
0.0
 40
0.0
 40
0.5
 40
0.5
 40
0.5
 40
1.0
 40
1.0
 40
1.0
 40
1.0
 10
308.4417918373269
 20
-0.7396468996792894
 30
0.0
 10
308.4114137988303
 20
-0.9164356900014867
 30
0.0
 10
308.2022033013014
 20
-0.8955935017238952
 30
0.0
 10
308.0856530035064
 20
-0.8756397408400673
 30
0.0
 10
307.8535564332179
 20
-0.8359041112186993
 30
0.0
 10
307.6305871866958
 20
-0.7070583023962955
 30
0.0
 10
307.3996166150851
 20
-0.6490788197023971
 30
0.0
  0
SPLINE
  5
A9
330
1F
100
AcDbEntity
  8
1
  6
Continuous
 62
   163
370
    18
100
AcDbSpline
210
0.0
220
0.0
230
1.0
 70
     8
 71
     3
 72
    11
 73
     7
 74
     0
 42
0.000000001
 43
0.0000000001
 40
0.0
 40
0.0
 40
0.0
 40
0.0
 40
0.5000000000000013
 40
0.5000000000000013
 40
0.5000000000000013
 40
1.0
 40
1.0
 40
1.0
 40
1.0
 10
310.1461285691244
 20
-13.94360333237753
 30
0.0
 10
310.0926101696517
 20
-13.92001622858902
 30
0.0
 10
310.0312368096577
 20
-13.92820342598851
 30
0.0
 10
309.9731241582554
 20
-13.93463688635253
 30
0.0
 10
309.7686457439261
 20
-13.9572740185802
 30
0.0
 10
309.6631070366627
 20
-13.8089632590354
 30
0.0
 10
309.5845782045702
 20
-13.63895313237108
 30
0.0
  0
SPLINE
  5
AA
330
1F
100
AcDbEntity
  8
1
  6
Continuous
 62
   163
370
    18
100
AcDbSpline
210
0.0
220
0.0
230
1.0
 70
     8
 71
     3
 72
     8
 73
     4
 74
     0
 42
0.000000001
 43
0.0000000001
 40
0.0
 40
0.0
 40
0.0
 40
0.0
 40
1.0
 40
1.0
 40
1.0
 40
1.0
 10
391.5571870528569
 20
1.730914797181776
 30
0.0
 10
391.5477824208381
 20
1.749869927191075
 30
0.0
 10
391.7376411384636
 20
1.423921663563796
 30
0.0
 10
391.9834641582348
 20
1.007423706009057
 30
0.0
  0
SPLINE
  5
AB
330
1F
100
AcDbEntity
  8
1
  6
Continuous
 62
   163
370
    18
100
AcDbSpline
210
0.0
220
0.0
230
1.0
 70
     8
 71
     3
 72
    75
 73
    71
 74
     0
 42
0.000000001
 43
0.0000000001
 40
0.0
 40
0.0
 40
0.0
 40
0.0
 40
0.0416666666666663
 40
0.0416666666666663
 40
0.0416666666666663
 40
0.0833333333333331
 40
0.0833333333333331
 40
0.0833333333333331
 40
0.1250000000000001
 40
0.1250000000000001
 40
0.1250000000000001
 40
0.1666666666666665
 40
0.1666666666666665
 40
0.1666666666666665
 40
0.2083333333333333
 40
0.2083333333333333
 40
0.2499999999999998
 40
0.2499999999999998
 40
0.2499999999999998
 40
0.2916666666666666
 40
0.2916666666666666
 40
0.3333333333333335
 40
0.3333333333333335
 40
0.3333333333333335
 40
0.3749999999999998
 40
0.3749999999999998
 40
0.3749999999999998
 40
0.416666666666667
 40
0.416666666666667
 40
0.416666666666667
 40
0.4583333333333333
 40
0.4583333333333333
 40
0.4583333333333333
 40
0.5000000000000001
 40
0.5000000000000001
 40
0.5000000000000001
 40
0.5416666666666666
 40
0.5416666666666666
 40
0.5416666666666666
 40
0.5833333333333333
 40
0.5833333333333333
 40
0.5833333333333333
 40
0.6249999999999998
 40
0.6249999999999998
 40
0.6249999999999998
 40
0.6666666666666666
 40
0.6666666666666666
 40
0.6666666666666666
 40
0.7083333333333334
 40
0.7083333333333334
 40
0.7083333333333334
 40
0.75
 40
0.75
 40
0.75
 40
0.7916666666666665
 40
0.7916666666666665
 40
0.7916666666666665
 40
0.8333333333333335
 40
0.8333333333333335
 40
0.8333333333333335
 40
0.8750000000000001
 40
0.8750000000000001
 40
0.8750000000000001
 40
0.9166666666666669
 40
0.9166666666666669
 40
0.9166666666666669
 40
0.9583333333333333
 40
0.9583333333333333
 40
0.9583333333333333
 40
1.0
 40
1.0
 40
1.0
 40
1.0
 10
391.9834641582348
 20
1.007423706009057
 30
0.0
 10
392.2962383278508
 20
0.3252314744621142
 30
0.0
 10
392.4672159552098
 20
-0.183862713323317
 30
0.0
 10
392.5114938632034
 20
-1.194930955602359
 30
0.0
 10
392.5239128126337
 20
-1.478512677059708
 30
0.0
 10
392.4674400247386
 20
-1.966010277609339
 30
0.0
 10
392.5424478185313
 20
-2.23975695082243
 30
0.0
 10
392.5866534553683
 20
-2.401088799281508
 30
0.0
 10
392.6310186757203
 20
-2.507193816402818
 30
0.0
 10
392.8952255973338
 20
-2.813020838606469
 30
0.0
 10
392.9577190534507
 20
-2.885358790522159
 30
0.0
 10
393.246715642534
 20
-3.210404434193119
 30
0.0
 10
393.3251734916624
 20
-3.26501739757044
 30
0.0
 10
393.5595865285094
 20
-3.428187695236166
 30
0.0
 10
394.238465330695
 20
-3.461888171566979
 30
0.0
 10
394.8066531278702
 20
-3.520698873618649
 30
0.0
 10
394.8612236778893
 20
-3.617442996928608
 30
0.0
 10
394.8590719154693
 20
-3.903046551398586
 30
0.0
 10
394.8569439234495
 20
-4.18549505922599
 30
0.0
 10
394.8202901538164
 20
-4.276492572529627
 30
0.0
 10
394.2554040933589
 20
-4.282014383650779
 30
0.0
 10
393.6754713472988
 20
-4.265928733915421
 30
0.0
 10
393.4001578347634
 20
-4.329049083181473
 30
0.0
 10
392.953302578731
 20
-4.431498322132348
 30
0.0
 10
392.7004502349814
 20
-4.886139787534088
 30
0.0
 10
392.3986996300245
 20
-5.231280390791232
 30
0.0
 10
392.1626918583513
 20
-5.501224720149862
 30
0.0
 10
391.8776112388675
 20
-5.768568675424145
 30
0.0
 10
391.5257598445065
 20
-5.87252044518242
 30
0.0
 10
391.0684988597956
 20
-6.007614662127163
 30
0.0
 10
390.5638877040635
 20
-5.849071091169937
 30
0.0
 10
390.203900855215
 20
-5.553903207852906
 30
0.0
 10
390.1092979765613
 20
-5.476334453501944
 30
0.0
 10
390.0007296441286
 20
-5.339348063561005
 30
0.0
 10
389.8684378237791
 20
-5.332801907322946
 30
0.0
 10
389.6603960623445
 20
-5.322507439601553
 30
0.0
 10
389.7464272632669
 20
-5.569411326740773
 30
0.0
 10
389.7942769722734
 20
-5.686716772547955
 30
0.0
 10
389.9531554086158
 20
-6.076213515397003
 30
0.0
 10
390.1123823987178
 20
-6.465570151158815
 30
0.0
 10
390.2709129509658
 20
-6.855208591301248
 30
0.0
 10
390.3186047121508
 20
-6.972426018303532
 30
0.0
 10
390.487899575868
 20
-7.261398034808096
 30
0.0
 10
390.3017548174271
 20
-7.342886960085245
 30
0.0
 10
390.2614514842342
 20
-7.360530622654574
 30
0.0
 10
390.2158827551659
 20
-7.354821540450744
 30
0.0
 10
390.1705954682644
 20
-7.337690660623259
 30
0.0
 10
389.8240199945097
 20
-7.206591113746903
 30
0.0
 10
389.5264421542569
 20
-6.798298095614604
 30
0.0
 10
389.3039403289815
 20
-6.519646073422106
 30
0.0
 10
389.0509092133761
 20
-6.2027604390964
 30
0.0
 10
388.8226025097454
 20
-5.86699522702733
 30
0.0
 10
388.5684671259163
 20
-5.550962716435931
 30
0.0
 10
388.4292512032836
 20
-5.377839411522451
 30
0.0
 10
388.2431710874218
 20
-5.17452863450241
 30
0.0
 10
388.0095818865199
 20
-5.208411142712766
 30
0.0
 10
387.7078204093779
 20
-5.252182154760202
 30
0.0
 10
387.4286539154184
 20
-5.606897682349722
 30
0.0
 10
387.1951774420684
 20
-5.788329094722444
 30
0.0
 10
386.9256543517697
 20
-5.99777184601262
 30
0.0
 10
386.6428241875431
 20
-6.191371421693521
 30
0.0
 10
386.3364589834883
 20
-6.343219046142302
 30
0.0
 10
385.8451862225907
 20
-6.586714719643657
 30
0.0
 10
385.2989915520623
 20
-6.786819806561848
 30
0.0
 10
384.7469200284942
 20
-6.817328243880679
 30
0.0
 10
384.7116435551753
 20
-6.819277683453518
 30
0.0
 10
384.6738767932433
 20
-6.820031057185229
 30
0.0
 10
384.6439509377362
 20
-6.801266018607983
 30
0.0
 10
384.5968909219613
 20
-6.771756987153599
 30
0.0
 10
384.5881121817919
 20
-6.705987783660578
 30
0.0
 10
384.598202372916
 20
-6.651365296849968
 30
0.0
  0
SPLINE
  5
AC
330
1F
100
AcDbEntity
  8
1
  6
Continuous
 62
   163
370
    18
100
AcDbSpline
210
0.0
220
0.0
230
1.0
 70
     8
 71
     3
 72
    36
 73
    32
 74
     0
 42
0.000000001
 43
0.0000000001
 40
0.0
 40
0.0
 40
0.0
 40
0.0
 40
0.0909090909090908
 40
0.0909090909090908
 40
0.0909090909090908
 40
0.1818181818181814
 40
0.1818181818181814
 40
0.1818181818181814
 40
0.2727272727272727
 40
0.2727272727272727
 40
0.2727272727272727
 40
0.3636363636363635
 40
0.3636363636363635
 40
0.3636363636363635
 40
0.4545454545454547
 40
0.4545454545454547
 40
0.4545454545454547
 40
0.5454545454545451
 40
0.5454545454545451
 40
0.6363636363636361
 40
0.6363636363636361
 40
0.6363636363636361
 40
0.7272727272727272
 40
0.7272727272727272
 40
0.8181818181818179
 40
0.8181818181818179
 40
0.8181818181818179
 40
0.909090909090909
 40
0.909090909090909
 40
0.909090909090909
 40
1.0
 40
1.0
 40
1.0
 40
1.0
 10
244.830038560483
 20
-13.5965774677483
 30
0.0
 10
245.5524966155867
 20
-13.17271364364569
 30
0.0
 10
246.2489786834151
 20
-12.70586782778193
 30
0.0
 10
246.94713192639
 20
-12.24300155204391
 30
0.0
 10
248.3121904497812
 20
-11.33798598240456
 30
0.0
 10
249.6582587511511
 20
-10.36498213938919
 30
0.0
 10
250.8966959197944
 20
-9.311664539387081
 30
0.0
 10
251.9267942295053
 20
-8.435543645389972
 30
0.0
 10
253.0163440604974
 20
-7.49821642986322
 30
0.0
 10
253.2918498062885
 20
-6.101793080113916
 30
0.0
 10
253.323056095441
 20
-5.943621457570814
 30
0.0
 10
253.3420506834819
 20
-5.777689093967985
 30
0.0
 10
253.2969859320824
 20
-5.622894912788818
 30
0.0
 10
253.256600441029
 20
-5.484173654488833
 30
0.0
 10
253.1680850870277
 20
-5.365394252304812
 30
0.0
 10
253.0825711343561
 20
-5.248938512326659
 30
0.0
 10
252.559330461835
 20
-4.53637199187737
 30
0.0
 10
252.0772258032574
 20
-3.767297536720292
 30
0.0
 10
251.6930417407412
 20
-2.041455714336532
 30
0.0
 10
251.8336284626805
 20
-1.063542008126021
 30
0.0
 10
252.4333477234368
 20
-0.4140278391706919
 30
0.0
 10
252.8838365407209
 20
0.073865228350619
 30
0.0
 10
253.5282174353947
 20
0.3227034887806554
 30
0.0
 10
254.668327975048
 20
1.003928295069127
 30
0.0
 10
255.2181688012193
 20
1.529395633862403
 30
0.0
 10
255.2378879337753
 20
2.193165907141001
 30
0.0
 10
255.2446872382581
 20
2.422038865008143
 30
0.0
 10
255.1865804669739
 20
2.651783701697795
 30
0.0
 10
255.2179736034898
 20
2.878595370133419
 30
0.0
 10
255.3055098774281
 20
3.511034512699116
 30
0.0
 10
256.0564239140954
 20
4.085730719231795
 30
0.0
 10
255.7441017646836
 20
4.642594004621303
 30
0.0
  0
SPLINE
  5
AD
330
1F
100
AcDbEntity
  8
1
  6
Continuous
 62
   163
370
    18
100
AcDbSpline
210
0.0
220
0.0
230
1.0
 70
     8
 71
     3
 72
     8
 73
     4
 74
     0
 42
0.000000001
 43
0.0000000001
 40
0.0
 40
0.0
 40
0.0
 40
0.0
 40
1.0
 40
1.0
 40
1.0
 40
1.0
 10
307.826685908086
 20
-7.680189091542497
 30
0.0
 10
307.3347097399815
 20
-6.031952880674065
 30
0.0
 10
307.2963193585225
 20
-4.229607708032157
 30
0.0
 10
307.4686507106455
 20
-2.503316926766648
 30
0.0
  0
SPLINE
  5
AE
330
1F
100
AcDbEntity
  8
1
  6
Continuous
 62
   163
370
    18
100
AcDbSpline
210
0.0
220
0.0
230
1.0
 70
     8
 71
     3
 72
    11
 73
     7
 74
     0
 42
0.000000001
 43
0.0000000001
 40
0.0
 40
0.0
 40
0.0
 40
0.0
 40
0.4999999999999993
 40
0.4999999999999993
 40
0.4999999999999993
 40
1.0
 40
1.0
 40
1.0
 40
1.0
 10
309.5845782045702
 20
-13.63895313237108
 30
0.0
 10
309.3827775613871
 20
-13.20200769610592
 30
0.0
 10
309.9594921293062
 20
-12.39408047710121
 30
0.0
 10
309.6727429781374
 20
-11.89704861507471
 30
0.0
 10
308.9063105468728
 20
-10.5685657342172
 30
0.0
 10
308.2638047154434
 20
-9.15184124488858
 30
0.0
 10
307.826685908086
 20
-7.680189091542497
 30
0.0
  0
SPLINE
  5
AF
330
1F
100
AcDbEntity
  8
1
  6
Continuous
 62
   163
370
    18
100
AcDbSpline
210
0.0
220
0.0
230
1.0
 70
     8
 71
     3
 72
     8
 73
     4
 74
     0
 42
0.000000001
 43
0.0000000001
 40
0.0
 40
0.0
 40
0.0
 40
0.0
 40
1.0
 40
1.0
 40
1.0
 40
1.0
 10
412.1201495598391
 20
-0.0716491077839797
 30
0.0
 10
412.1220962191726
 20
0.1149105079878802
 30
0.0
 10
412.2722791152374
 20
0.288485503384759
 30
0.0
 10
412.2396090006728
 20
0.3525374448239311
 30
0.0
  0
SPLINE
  5
B0
330
1F
100
AcDbEntity
  8
1
  6
Continuous
 62
   163
370
    18
100
AcDbSpline
210
0.0
220
0.0
230
1.0
 70
     8
 71
     3
 72
    58
 73
    54
 74
     0
 42
0.000000001
 43
0.0000000001
 40
0.0
 40
0.0
 40
0.0
 40
0.0
 40
0.056879408987392
 40
0.056879408987392
 40
0.1137588179747844
 40
0.1137588179747844
 40
0.1137588179747844
 40
0.1706382269621768
 40
0.1706382269621768
 40
0.1706382269621768
 40
0.227517635949569
 40
0.227517635949569
 40
0.227517635949569
 40
0.2843970449369612
 40
0.2843970449369612
 40
0.2843970449369612
 40
0.3412764539243534
 40
0.3412764539243534
 40
0.3412764539243534
 40
0.3981558629117459
 40
0.3981558629117459
 40
0.3981558629117459
 40
0.4550352718991382
 40
0.4550352718991382
 40
0.4550352718991382
 40
0.51191468088653
 40
0.51191468088653
 40
0.51191468088653
 40
0.5687940898739224
 40
0.5687940898739224
 40
0.5687940898739224
 40
0.6256734988613148
 40
0.6256734988613148
 40
0.6256734988613148
 40
0.6825529078487069
 40
0.6825529078487069
 40
0.6825529078487069
 40
0.7394323168360993
 40
0.7394323168360993
 40
0.7394323168360993
 40
0.7963117258234916
 40
0.7963117258234916
 40
0.7963117258234916
 40
0.853191134810884
 40
0.853191134810884
 40
0.853191134810884
 40
0.910070543798276
 40
0.910070543798276
 40
0.910070543798276
 40
0.9669499527856684
 40
0.9669499527856684
 40
0.9669499527856684
 40
1.0
 40
1.0
 40
1.0
 40
1.0
 10
412.2396090006728
 20
0.3525374448239311
 30
0.0
 10
412.2355323043496
 20
0.3987268448143039
 30
0.0
 10
411.9868140954561
 20
0.3660697980248234
 30
0.0
 10
411.7279757317214
 20
0.4263786868428515
 30
0.0
 10
411.7502528020302
 20
0.555036341365011
 30
0.0
 10
411.7814278764488
 20
0.6582252101949638
 30
0.0
 10
411.8546441117844
 20
0.9005694754513106
 30
0.0
 10
411.83288901718
 20
1.126331011298744
 30
0.0
 10
412.3113164758581
 20
1.123858966852369
 30
0.0
 10
412.3722147637098
 20
1.123544304155764
 30
0.0
 10
412.4267263433603
 20
1.151831059491262
 30
0.0
 10
412.4687289372775
 20
1.19583682221448
 30
0.0
 10
412.5239155339336
 20
1.253655353201853
 30
0.0
 10
412.5528669366745
 20
1.333111628573101
 30
0.0
 10
412.5708472476541
 20
1.410991368220466
 30
0.0
 10
412.6765045264616
 20
1.868634251854334
 30
0.0
 10
412.9531433693089
 20
1.748832957439512
 30
0.0
 10
413.1932905618361
 20
1.713518145933605
 30
0.0
 10
413.837731378021
 20
1.618749992657331
 30
0.0
 10
414.3962961926983
 20
1.523206011199516
 30
0.0
 10
415.0908142869578
 20
1.546917167352255
 30
0.0
 10
415.3969788147984
 20
1.55736976029125
 30
0.0
 10
415.6501945133127
 20
1.638155762619081
 30
0.0
 10
415.8213874597795
 20
1.910416342386707
 30
0.0
 10
415.9493235835221
 20
2.113882454409688
 30
0.0
 10
416.0315578159688
 20
2.38335832262945
 30
0.0
 10
416.0517705027488
 20
2.622581788701194
 30
0.0
 10
416.0855648845101
 20
3.022548860208668
 30
0.0
 10
416.0994549206675
 20
3.427630606264088
 30
0.0
 10
416.0914504304246
 20
3.830811786350422
 30
0.0
 10
416.0829300038263
 20
4.259980358809111
 30
0.0
 10
416.0187927890295
 20
4.726453087905306
 30
0.0
 10
416.071764657287
 20
5.151643811302097
 30
0.0
 10
416.0894547111457
 20
5.293637043645133
 30
0.0
 10
416.1209629153969
 20
5.452453985261903
 30
0.0
 10
416.2664827913298
 20
5.513602229786257
 30
0.0
 10
416.5556242518699
 20
5.635101046479754
 30
0.0
 10
416.9421540088006
 20
5.501002755059694
 30
0.0
 10
417.2055723060694
 20
5.369867598534661
 30
0.0
 10
417.4810372902304
 20
5.232735348460666
 30
0.0
 10
417.7262518574921
 20
5.032069897832232
 30
0.0
 10
417.9395642175767
 20
4.817299399453191
 30
0.0
 10
418.2962463568896
 20
4.458179089721757
 30
0.0
 10
418.6048032115667
 20
4.051302652010182
 30
0.0
 10
418.8543099834906
 20
3.610922105452967
 30
0.0
 10
419.0621863858775
 20
3.244019343681494
 30
0.0
 10
419.4307972214568
 20
2.642359228432371
 30
0.0
 10
419.1651783105131
 20
2.224616788252328
 30
0.0
 10
419.1217980621686
 20
2.156392087177092
 30
0.0
 10
419.0620489011101
 20
2.098225141192407
 30
0.0
 10
419.0292633017352
 20
2.024326351082766
 30
0.0
 10
418.9787334065636
 20
1.910431891662911
 30
0.0
 10
419.0007582713757
 20
1.788586032026966
 30
0.0
 10
419.0521440379423
 20
1.671975957479289
 30
0.0
  0
SPLINE
  5
B1
330
1F
100
AcDbEntity
  8
1
  6
Continuous
 62
   163
370
    18
100
AcDbSpline
210
0.0
220
0.0
230
1.0
 70
     8
 71
     3
 72
    11
 73
     7
 74
     0
 42
0.000000001
 43
0.0000000001
 40
0.0
 40
0.0
 40
0.0
 40
0.0
 40
0.8680555555579481
 40
0.8680555555579481
 40
0.8680555555579481
 40
1.0
 40
1.0
 40
1.0
 40
1.0
 10
255.7441017646836
 20
4.642594004621303
 30
0.0
 10
255.6903934545957
 20
4.749652769652571
 30
0.0
 10
254.661147923412
 20
3.725618691556708
 30
0.0
 10
254.1196710091654
 20
3.267131017970535
 30
0.0
 10
254.0337902385095
 20
3.194412728957978
 30
0.0
 10
253.9528893932512
 20
3.147458857034678
 30
0.0
 10
253.8769292485751
 20
3.121907381500443
 30
0.0
  0
SPLINE
  5
B2
330
1F
100
AcDbEntity
  8
1
  6
Continuous
 62
   163
370
    18
100
AcDbSpline
210
0.0
220
0.0
230
1.0
 70
     8
 71
     3
 72
    60
 73
    56
 74
     0
 42
0.000000001
 43
0.0000000001
 40
0.0
 40
0.0
 40
0.0
 40
0.0
 40
0.0527072142738578
 40
0.0527072142738578
 40
0.0527072142738578
 40
0.1054144285477157
 40
0.1054144285477157
 40
0.1054144285477157
 40
0.1581216428215735
 40
0.1581216428215735
 40
0.1581216428215735
 40
0.2108288570954314
 40
0.2108288570954314
 40
0.2108288570954314
 40
0.2635360713692892
 40
0.2635360713692892
 40
0.2635360713692892
 40
0.3162432856431471
 40
0.3162432856431471
 40
0.3162432856431471
 40
0.368950499917005
 40
0.368950499917005
 40
0.4216577141908628
 40
0.4216577141908628
 40
0.4216577141908628
 40
0.4743649284647207
 40
0.4743649284647207
 40
0.4743649284647207
 40
0.5270721427385785
 40
0.5270721427385785
 40
0.5270721427385785
 40
0.5797793570124364
 40
0.5797793570124364
 40
0.5797793570124364
 40
0.6324865712862942
 40
0.6324865712862942
 40
0.6324865712862942
 40
0.6851937855601521
 40
0.6851937855601521
 40
0.6851937855601521
 40
0.7379009998340099
 40
0.7379009998340099
 40
0.7379009998340099
 40
0.7906082141078677
 40
0.7906082141078677
 40
0.8433154283817256
 40
0.8433154283817256
 40
0.8433154283817256
 40
0.8960226426555835
 40
0.8960226426555835
 40
0.8960226426555835
 40
0.9487298569294413
 40
0.9487298569294413
 40
0.9487298569294413
 40
1.0
 40
1.0
 40
1.0
 40
1.0
 10
307.4686978766146
 20
-2.503321627750958
 30
0.0
 10
307.5004300708778
 20
-2.342919121267547
 30
0.0
 10
307.54200187509
 20
-2.252721796626046
 30
0.0
 10
307.6006459699181
 20
-2.214621241596529
 30
0.0
 10
307.7977653236217
 20
-2.086554523111197
 30
0.0
 10
307.9515745671908
 20
-2.252512529489246
 30
0.0
 10
308.0721712745137
 20
-2.394980797664499
 30
0.0
 10
308.4185233596143
 20
-2.804147704776487
 30
0.0
 10
308.8538452003513
 20
-3.246290087152316
 30
0.0
 10
308.7508862885475
 20
-3.831845636886665
 30
0.0
 10
308.6864941523015
 20
-4.198061363893488
 30
0.0
 10
308.4172398277013
 20
-4.502890148018128
 30
0.0
 10
308.3506990395577
 20
-4.868721571248523
 30
0.0
 10
308.3219845905477
 20
-5.026589369957247
 30
0.0
 10
308.3325459560467
 20
-5.188769590822536
 30
0.0
 10
308.3476325832485
 20
-5.348516745010377
 30
0.0
 10
308.5440455805598
 20
-7.428267039520215
 30
0.0
 10
309.4771267031612
 20
-9.356832254727738
 30
0.0
 10
310.3950644204709
 20
-11.23335288259524
 30
0.0
 10
310.5968466705265
 20
-11.64585206138107
 30
0.0
 10
310.8099904320711
 20
-12.07274360092069
 30
0.0
 10
311.5310723085262
 20
-12.64153838609393
 30
0.0
 10
312.0845205923655
 20
-12.73742449571534
 30
0.0
 10
312.4427299872738
 20
-12.45009598260237
 30
0.0
 10
312.6976828980991
 20
-12.24559201977347
 30
0.0
 10
312.7951676686084
 20
-11.90604903313454
 30
0.0
 10
312.8619825851931
 20
-11.58611378279924
 30
0.0
 10
313.3465465734515
 20
-9.265836982179074
 30
0.0
 10
312.9568427832534
 20
-6.862175721926906
 30
0.0
 10
312.5519201391451
 20
-4.526683423631041
 30
0.0
 10
312.4572615028611
 20
-3.980716140187975
 30
0.0
 10
312.3590397170029
 20
-3.426221681822262
 30
0.0
 10
312.1132565142568
 20
-2.929601977095786
 30
0.0
 10
311.9325356269518
 20
-2.564444583553368
 30
0.0
 10
311.6658616295352
 20
-2.189985538388971
 30
0.0
 10
311.7468642158607
 20
-1.790687980326623
 30
0.0
 10
311.7775706330585
 20
-1.639322475098969
 30
0.0
 10
311.8574053881047
 20
-1.502062966118632
 30
0.0
 10
311.9506158981491
 20
-1.37891184205708
 30
0.0
 10
312.1217627819091
 20
-1.152790011968819
 30
0.0
 10
312.342475950636
 20
-0.9643897415021128
 30
0.0
 10
312.5926617302687
 20
-0.8308629217553316
 30
0.0
 10
312.7960759386507
 20
-0.7222985885768154
 30
0.0
 10
313.0203966480712
 20
-0.6483475325329314
 30
0.0
 10
313.3828119006652
 20
-0.363199553012946
 30
0.0
 10
313.5153428552388
 20
-0.1215499959354334
 30
0.0
 10
313.4409432991523
 20
0.0966889841722019
 30
0.0
 10
313.3987716350801
 20
0.2203926921066565
 30
0.0
 10
313.3065336694036
 20
0.3049250070067469
 30
0.0
 10
313.1935416319047
 20
0.3730888730492938
 30
0.0
 10
312.902573153957
 20
0.5486192625569555
 30
0.0
 10
313.0587690542957
 20
0.9895865635540859
 30
0.0
 10
313.393723019617
 20
0.9323203962664879
 30
0.0
 10
313.6572599940515
 20
0.8872641974244713
 30
0.0
 10
313.9148057770635
 20
0.8031714637819903
 30
0.0
 10
314.1559941687505
 20
0.6845340814100598
 30
0.0
  0
SPLINE
  5
B3
330
1F
100
AcDbEntity
  8
1
  6
Continuous
 62
   163
370
    18
100
AcDbSpline
210
0.0
220
0.0
230
1.0
 70
     8
 71
     3
 72
    52
 73
    48
 74
     0
 42
0.000000001
 43
0.0000000001
 40
0.0
 40
0.0
 40
0.0
 40
0.0
 40
0.0625
 40
0.0625
 40
0.0625
 40
0.125
 40
0.125
 40
0.125
 40
0.1875
 40
0.1875
 40
0.1875
 40
0.25
 40
0.25
 40
0.25
 40
0.3125
 40
0.3125
 40
0.3125
 40
0.375
 40
0.375
 40
0.375
 40
0.4375
 40
0.4375
 40
0.4375
 40
0.5000000000000002
 40
0.5000000000000002
 40
0.5625
 40
0.5625
 40
0.5625
 40
0.625
 40
0.625
 40
0.625
 40
0.6875000000000001
 40
0.6875000000000001
 40
0.6875000000000001
 40
0.75
 40
0.75
 40
0.75
 40
0.8125000000000001
 40
0.8125000000000001
 40
0.8125000000000001
 40
0.875
 40
0.875
 40
0.875
 40
0.9375000000000001
 40
0.9375000000000001
 40
0.9375000000000001
 40
1.0
 40
1.0
 40
1.0
 40
1.0
 10
307.8187299811248
 20
4.805367520061124
 30
0.0
 10
307.8532964169815
 20
4.374784901610453
 30
0.0
 10
307.9072582512103
 20
3.998031131146392
 30
0.0
 10
308.0039226139349
 20
3.892489125076268
 30
0.0
 10
308.2285589507206
 20
3.647222214372567
 30
0.0
 10
308.3575230914593
 20
4.01591646238867
 30
0.0
 10
308.409525317741
 20
4.237527049340276
 30
0.0
 10
308.5311985296505
 20
4.756044694364005
 30
0.0
 10
308.5511414056284
 20
5.385972276978353
 30
0.0
 10
308.5703124319554
 20
5.91822915792156
 30
0.0
 10
308.6361995163394
 20
7.747492413342661
 30
0.0
 10
309.3454105363875
 20
9.378837517666522
 30
0.0
 10
310.1018919557936
 20
11.04565514795105
 30
0.0
 10
310.2420751504972
 20
11.35453229206536
 30
0.0
 10
310.3828303889056
 20
11.66448238645828
 30
0.0
 10
310.5629964434999
 20
11.95187864765264
 30
0.0
 10
310.8114296447314
 20
12.34817290714152
 30
0.0
 10
311.1303450930575
 20
12.6946418654065
 30
0.0
 10
311.4473151133013
 20
13.03858692175633
 30
0.0
 10
311.540719097508
 20
13.13993984651097
 30
0.0
 10
311.6353663455403
 20
13.24236133851386
 30
0.0
 10
311.7504931234805
 20
13.31814091676838
 30
0.0
 10
312.0605819920897
 20
13.52224984872195
 30
0.0
 10
312.4855575532752
 20
13.49747273538433
 30
0.0
 10
313.1334347162349
 20
13.13481942244701
 30
0.0
 10
313.3648845669538
 20
12.81881234073009
 30
0.0
 10
313.5137326683576
 20
12.47872440559292
 30
0.0
 10
313.7434139165231
 20
11.95394900912068
 30
0.0
 10
313.7941135204928
 20
11.35273835634221
 30
0.0
 10
313.6555586751996
 20
10.79690995414426
 30
0.0
 10
313.5603288787482
 20
10.41488487597958
 30
0.0
 10
313.3786912166044
 20
10.0527704194568
 30
0.0
 10
313.3402689095107
 20
9.660934291382747
 30
0.0
 10
313.3167609611336
 20
9.42119690526999
 30
0.0
 10
313.3649090504712
 20
9.181013392333217
 30
0.0
 10
313.3712333436531
 20
8.940209243216769
 30
0.0
 10
313.3975690224101
 20
7.937450431737811
 30
0.0
 10
313.3802736308417
 20
7.398057943144527
 30
0.0
 10
313.1894963941313
 20
6.535590281449203
 30
0.0
 10
312.9229248162437
 20
5.33047079539628
 30
0.0
 10
312.388508364266
 20
3.972326914247489
 30
0.0
 10
312.2257139046103
 20
2.748859325948874
 30
0.0
 10
312.1980283697089
 20
2.54079109876074
 30
0.0
 10
312.1742986609462
 20
2.332039740596509
 30
0.0
 10
312.1611969202795
 20
2.12249701417945
 30
0.0
 10
312.1490101498277
 20
1.92758786648391
 30
0.0
 10
312.1254850312059
 20
1.70414203363569
 30
0.0
 10
312.1633064590163
 20
1.51111876374849
 30
0.0
  0
SPLINE
  5
B4
330
1F
100
AcDbEntity
  8
1
  6
Continuous
 62
   163
370
    18
100
AcDbSpline
210
0.0
220
0.0
230
1.0
 70
     8
 71
     3
 72
    11
 73
     7
 74
     0
 42
0.000000001
 43
0.0000000001
 40
0.0
 40
0.0
 40
0.0
 40
0.0
 40
0.5
 40
0.5
 40
0.5
 40
1.0
 40
1.0
 40
1.0
 40
1.0
 10
419.0521440379427
 20
1.671975957479525
 30
0.0
 10
419.1105036316552
 20
1.551703002643783
 30
0.0
 10
419.1437739409124
 20
1.38161797327566
 30
0.0
 10
419.1485857685432
 20
1.248020547559139
 30
0.0
 10
419.162207566714
 20
0.8698197247384715
 30
0.0
 10
418.5535808884611
 20
1.057452482169034
 30
0.0
 10
418.3927531611725
 20
1.178541544973915
 30
0.0
  0
SPLINE
  5
B5
330
1F
100
AcDbEntity
  8
1
  6
Continuous
 62
   163
370
    18
100
AcDbSpline
210
0.0
220
0.0
230
1.0
 70
     8
 71
     3
 72
    45
 73
    41
 74
     0
 42
0.000000001
 43
0.0000000001
 40
0.0
 40
0.0
 40
0.0
 40
0.0
 40
0.0714285714285714
 40
0.0714285714285714
 40
0.0714285714285714
 40
0.1428571428571428
 40
0.1428571428571428
 40
0.1428571428571428
 40
0.2142857142857143
 40
0.2142857142857143
 40
0.2142857142857143
 40
0.2857142857142857
 40
0.2857142857142857
 40
0.2857142857142857
 40
0.3571428571428572
 40
0.3571428571428572
 40
0.3571428571428572
 40
0.4285714285714286
 40
0.4285714285714286
 40
0.4285714285714286
 40
0.5
 40
0.5
 40
0.5
 40
0.5714285714285714
 40
0.5714285714285714
 40
0.5714285714285714
 40
0.6428571428571429
 40
0.6428571428571429
 40
0.7142857142857143
 40
0.7142857142857143
 40
0.7142857142857143
 40
0.7857142857142857
 40
0.7857142857142857
 40
0.8571428571428571
 40
0.8571428571428571
 40
0.8571428571428571
 40
0.9285714285714286
 40
0.9285714285714286
 40
0.9285714285714286
 40
1.0
 40
1.0
 40
1.0
 40
1.0
 10
418.3927531611725
 20
1.178541544973915
 30
0.0
 10
418.2242029862062
 20
1.305450501362215
 30
0.0
 10
418.1709932376488
 20
1.533564128072463
 30
0.0
 10
418.1540784199995
 20
1.743860654368195
 30
0.0
 10
418.1310340730423
 20
2.030363661159534
 30
0.0
 10
418.1531348090638
 20
2.322045106465106
 30
0.0
 10
418.0908162894336
 20
2.602636298305172
 30
0.0
 10
418.037861010791
 20
2.841069188507947
 30
0.0
 10
417.9061288845129
 20
3.083252836921652
 30
0.0
 10
417.6892134112386
 20
3.209345074926962
 30
0.0
 10
417.5015456083898
 20
3.318435740085827
 30
0.0
 10
417.275907736093
 20
3.253430681783857
 30
0.0
 10
417.1790543025954
 20
3.058103268920581
 30
0.0
 10
417.0811632805843
 20
2.860683318161278
 30
0.0
 10
417.0712569191767
 20
2.633308201068635
 30
0.0
 10
417.0367543505124
 20
2.415668259683038
 30
0.0
 10
416.9880785188519
 20
2.108624304417554
 30
0.0
 10
416.8877582080478
 20
1.812452167052343
 30
0.0
 10
416.7859854313485
 20
1.518704599240055
 30
0.0
 10
416.7055802716439
 20
1.286630552832107
 30
0.0
 10
416.5979102644185
 20
1.027498558445705
 30
0.0
 10
416.3668918404525
 20
0.944108865776386
 30
0.0
 10
416.2266333037362
 20
0.8934803658055962
 30
0.0
 10
416.0596737505336
 20
0.9177663127617475
 30
0.0
 10
415.9372441113165
 20
0.8326388432044576
 30
0.0
 10
415.836137487334
 20
0.76233763909931
 30
0.0
 10
415.7916570126272
 20
0.6289375947691294
 30
0.0
 10
415.818038554491
 20
0.3840636494506465
 30
0.0
 10
415.8810714927878
 20
0.2718978759138277
 30
0.0
 10
415.9584832767151
 20
0.1761261423274093
 30
0.0
 10
416.0227032971376
 20
0.0966748963440282
 30
0.0
 10
416.0983634479585
 20
0.024684258449658
 30
0.0
 10
416.1908692762086
 20
-0.1574956465489746
 30
0.0
 10
416.2009714307608
 20
-0.2771200160316262
 30
0.0
 10
416.1354275560877
 20
-0.3554827106836703
 30
0.0
 10
416.0772190400891
 20
-0.4250754253058119
 30
0.0
 10
415.9769328248115
 20
-0.4544136066090207
 30
0.0
 10
415.8869684381498
 20
-0.4426753613386388
 30
0.0
 10
415.6761594399776
 20
-0.415169724746544
 30
0.0
 10
415.7244510763417
 20
-0.4248100651909926
 30
0.0
 10
415.5588465620503
 20
-0.3605735488934232
 30
0.0
  0
SPLINE
  5
B6
330
1F
100
AcDbEntity
  8
1
  6
Continuous
 62
   163
370
    18
100
AcDbSpline
210
0.0
220
0.0
230
1.0
 70
     8
 71
     3
 72
    69
 73
    65
 74
     0
 42
0.000000001
 43
0.0000000001
 40
0.0
 40
0.0
 40
0.0
 40
0.0
 40
0.0434782608695652
 40
0.0434782608695652
 40
0.0434782608695652
 40
0.0869565217391305
 40
0.0869565217391305
 40
0.0869565217391305
 40
0.1304347826086957
 40
0.1304347826086957
 40
0.1739130434782609
 40
0.1739130434782609
 40
0.1739130434782609
 40
0.2173913043478261
 40
0.2173913043478261
 40
0.2608695652173914
 40
0.2608695652173914
 40
0.2608695652173914
 40
0.3043478260869565
 40
0.3043478260869565
 40
0.3043478260869565
 40
0.3478260869565217
 40
0.3478260869565217
 40
0.3478260869565217
 40
0.3913043478260869
 40
0.3913043478260869
 40
0.3913043478260869
 40
0.4347826086956522
 40
0.4347826086956522
 40
0.4347826086956522
 40
0.4782608695652174
 40
0.4782608695652174
 40
0.4782608695652174
 40
0.5217391304347826
 40
0.5217391304347826
 40
0.5217391304347826
 40
0.5652173913043479
 40
0.5652173913043479
 40
0.6086956521739131
 40
0.6086956521739131
 40
0.6086956521739131
 40
0.6521739130434783
 40
0.6521739130434783
 40
0.6521739130434783
 40
0.6956521739130435
 40
0.6956521739130435
 40
0.7391304347826086
 40
0.7391304347826086
 40
0.7391304347826086
 40
0.782608695652174
 40
0.782608695652174
 40
0.782608695652174
 40
0.8260869565217391
 40
0.8260869565217391
 40
0.8260869565217391
 40
0.8695652173913043
 40
0.8695652173913043
 40
0.8695652173913043
 40
0.9130434782608696
 40
0.9130434782608696
 40
0.9130434782608696
 40
0.9565217391304348
 40
0.9565217391304348
 40
1.0
 40
1.0
 40
1.0
 40
1.0
 10
253.8769292485703
 20
3.12190738149884
 30
0.0
 10
253.4628587100427
 20
2.977976214319247
 30
0.0
 10
253.1584882258993
 20
2.93759576005281
 30
0.0
 10
252.71601437945
 20
3.009965565486111
 30
0.0
 10
252.6423282638043
 20
3.0220174639095
 30
0.0
 10
252.5627597094576
 20
3.036329156118549
 30
0.0
 10
252.4961461781024
 20
3.002601931982916
 30
0.0
 10
252.3275392400298
 20
2.917234231524637
 30
0.0
 10
252.4292854039677
 20
2.638677836958009
 30
0.0
 10
252.7754579103228
 20
2.486926819713388
 30
0.0
 10
252.9806494272018
 20
2.511177134431587
 30
0.0
 10
253.1515349972602
 20
2.430467373696559
 30
0.0
 10
253.484450790251
 20
2.273230258895087
 30
0.0
 10
253.5219547621683
 20
1.778767496010657
 30
0.0
 10
253.1165880204374
 20
1.164028895730918
 30
0.0
 10
252.7615864738729
 20
0.9997861974228688
 30
0.0
 10
252.424955689938
 20
0.8506682867938613
 30
0.0
 10
251.9560659371105
 20
0.6429633958753983
 30
0.0
 10
251.4871761866077
 20
0.4352584997097571
 30
0.0
 10
251.0182864314286
 20
0.2275536072232877
 30
0.0
 10
250.9311820394494
 20
0.1889688265338217
 30
0.0
 10
250.8427164688619
 20
0.1495397199745875
 30
0.0
 10
250.7702984169136
 20
0.0876399084079013
 30
0.0
 10
250.6506779242663
 20
-0.01460650329713
 30
0.0
 10
250.5870077205416
 20
-0.1677478482946804
 30
0.0
 10
250.547105990573
 20
-0.3199688807983395
 30
0.0
 10
250.3351253000368
 20
-1.128653607241764
 30
0.0
 10
250.6852780986758
 20
-1.966955067985773
 30
0.0
 10
251.0278971043955
 20
-2.729529010358307
 30
0.0
 10
251.2990330722321
 20
-3.333001732129123
 30
0.0
 10
251.5701690367843
 20
-3.93647445537585
 30
0.0
 10
251.8413050024942
 20
-4.539947178700009
 30
0.0
 10
252.0067012241803
 20
-4.908072846082943
 30
0.0
 10
252.1740996813319
 20
-5.283181183720051
 30
0.0
 10
252.2231840633318
 20
-5.683759693930194
 30
0.0
 10
252.3054684972991
 20
-6.355284415829689
 30
0.0
 10
252.0417175165264
 20
-7.032456916622142
 30
0.0
 10
251.2409424275062
 20
-8.123155764878781
 30
0.0
 10
250.7114027953147
 20
-8.557757169675513
 30
0.0
 10
250.1877932446814
 20
-8.986183615335516
 30
0.0
 10
249.8801907387791
 20
-9.23786933825719
 30
0.0
 10
249.5725882295239
 20
-9.489555057080278
 30
0.0
 10
249.2649857229184
 20
-9.741240817770283
 30
0.0
 10
248.9881805529127
 20
-9.967727658025956
 30
0.0
 10
248.7075575281833
 20
-10.19663958416964
 30
0.0
 10
248.0585898007355
 20
-10.497489135498
 30
0.0
 10
247.6801136722491
 20
-10.56335087518142
 30
0.0
 10
247.3407145812706
 20
-10.45054282453768
 30
0.0
 10
247.2594340514428
 20
-10.42352714191248
 30
0.0
 10
247.178804416755
 20
-10.38469212816904
 30
0.0
 10
247.1239371370615
 20
-10.31892013269051
 30
0.0
 10
246.9965240646223
 20
-10.16618407449334
 30
0.0
 10
247.0516771641208
 20
-9.935850043436036
 30
0.0
 10
247.1309502736701
 20
-9.75342699258811
 30
0.0
 10
247.3480300117194
 20
-9.253883726058419
 30
0.0
 10
247.6956722178402
 20
-8.816647604165958
 30
0.0
 10
247.88620962215
 20
-8.306390232404953
 30
0.0
 10
248.0479853775018
 20
-7.873156285298776
 30
0.0
 10
248.0896490233002
 20
-7.395764005500887
 30
0.0
 10
248.005366997166
 20
-6.941055760036433
 30
0.0
 10
247.9799579312656
 20
-6.803971825247838
 30
0.0
 10
247.927632095087
 20
-6.650276337049899
 30
0.0
 10
247.6680906621637
 20
-6.548351130037458
 30
0.0
 10
247.5406338132641
 20
-6.67806091870413
 30
0.0
 10
247.506649455009
 20
-6.875578471727414
 30
0.0
  0
SPLINE
  5
B7
330
1F
100
AcDbEntity
  8
1
  6
Continuous
 62
   163
370
    18
100
AcDbSpline
210
0.0
220
0.0
230
1.0
 70
     8
 71
     3
 72
    59
 73
    55
 74
     0
 42
0.000000001
 43
0.0000000001
 40
0.0
 40
0.0
 40
0.0
 40
0.0
 40
0.0319914457951348
 40
0.0319914457951348
 40
0.0319914457951348
 40
0.0889331254542441
 40
0.0889331254542441
 40
0.0889331254542441
 40
0.145874805113354
 40
0.145874805113354
 40
0.145874805113354
 40
0.2028164847724639
 40
0.2028164847724639
 40
0.2028164847724639
 40
0.2597581644315734
 40
0.2597581644315734
 40
0.2597581644315734
 40
0.3166998440906832
 40
0.3166998440906832
 40
0.3166998440906832
 40
0.373641523749793
 40
0.373641523749793
 40
0.373641523749793
 40
0.4305832034089028
 40
0.4305832034089028
 40
0.4305832034089028
 40
0.4875248830680126
 40
0.4875248830680126
 40
0.4875248830680126
 40
0.5444665627271221
 40
0.5444665627271221
 40
0.5444665627271221
 40
0.6014082423862319
 40
0.6014082423862319
 40
0.6014082423862319
 40
0.6583499220453416
 40
0.6583499220453416
 40
0.6583499220453416
 40
0.7152916017044514
 40
0.7152916017044514
 40
0.7152916017044514
 40
0.7722332813635611
 40
0.7722332813635611
 40
0.7722332813635611
 40
0.8291749610226707
 40
0.8291749610226707
 40
0.8291749610226707
 40
0.8861166406817805
 40
0.8861166406817805
 40
0.8861166406817805
 40
0.9430583203408903
 40
0.9430583203408903
 40
0.9430583203408903
 40
1.0
 40
1.0
 40
1.0
 40
1.0
 10
314.1559941688751
 20
0.684534081317037
 30
0.0
 10
314.4614874504172
 20
0.4543730502473524
 30
0.0
 10
314.790085265738
 20
0.2479749131974185
 30
0.0
 10
315.0529618657122
 20
-0.0270539814193927
 30
0.0
 10
315.3770694983099
 20
-0.3661445050298258
 30
0.0
 10
315.2833759041573
 20
-0.6435702481700639
 30
0.0
 10
314.8895427707948
 20
-0.8387823587357244
 30
0.0
 10
314.535698132999
 20
-1.014173286275833
 30
0.0
 10
314.1496745801117
 20
-1.165932924993465
 30
0.0
 10
313.7799555903799
 20
-1.311406738473687
 30
0.0
 10
313.5227803360416
 20
-1.412597821486422
 30
0.0
 10
313.2622780313536
 20
-1.522940368955152
 30
0.0
 10
313.057715375415
 20
-1.708770514187181
 30
0.0
 10
312.6748033888377
 20
-2.056617924313185
 30
0.0
 10
312.7715623840407
 20
-2.396177486369104
 30
0.0
 10
312.870843442352
 20
-2.837009527402025
 30
0.0
 10
312.9812694363082
 20
-3.327327792807797
 30
0.0
 10
313.0996886497198
 20
-3.815800652445033
 30
0.0
 10
313.2167553601869
 20
-4.304561668911021
 30
0.0
 10
313.4949667359136
 20
-5.466111987100904
 30
0.0
 10
313.7426153332539
 20
-6.626873377957872
 30
0.0
 10
313.9459582592497
 20
-7.803695883087937
 30
0.0
 10
314.1452434965756
 20
-8.957035007509775
 30
0.0
 10
314.1460667116003
 20
-10.17136414990095
 30
0.0
 10
314.1059999993068
 20
-11.34145298828573
 30
0.0
 10
314.0867059453244
 20
-11.90490718554321
 30
0.0
 10
314.0479709438806
 20
-12.46769681723297
 30
0.0
 10
313.9898274083093
 20
-13.02847549672618
 30
0.0
 10
313.9601372113767
 20
-13.31482941838225
 30
0.0
 10
313.9253871504843
 20
-13.60065892164873
 30
0.0
 10
313.8855805719816
 20
-13.88578267421101
 30
0.0
 10
313.8572259872917
 20
-14.08887889330973
 30
0.0
 10
313.8701229678633
 20
-14.33254915809174
 30
0.0
 10
313.7586320042524
 20
-14.50987776468847
 30
0.0
 10
313.6321389022592
 20
-14.71106757231144
 30
0.0
 10
313.3173491770787
 20
-14.40233691380467
 30
0.0
 10
313.1206854049254
 20
-14.54263174793756
 30
0.0
 10
312.9691731501525
 20
-14.65071666067836
 30
0.0
 10
312.8916635246915
 20
-14.89355449402359
 30
0.0
 10
312.8741057127046
 20
-15.06638915966521
 30
0.0
 10
312.8562501788983
 20
-15.24215452368524
 30
0.0
 10
312.667046300467
 20
-15.34188970466934
 30
0.0
 10
312.5059462138905
 20
-15.26927341513015
 30
0.0
 10
312.1161855272205
 20
-15.09358775613588
 30
0.0
 10
312.0196390548355
 20
-15.28261671946898
 30
0.0
 10
311.8788483316454
 20
-15.46174967231189
 30
0.0
 10
311.7891318426508
 20
-15.57589909372387
 30
0.0
 10
311.5254446347632
 20
-15.6274447141772
 30
0.0
 10
311.3991444573421
 20
-15.57243669850331
 30
0.0
 10
311.1278167224601
 20
-15.45426425727725
 30
0.0
 10
311.1531637771301
 20
-15.07993970726508
 30
0.0
 10
310.7780910954633
 20
-15.07775745131005
 30
0.0
 10
310.5986112319101
 20
-15.07671319770217
 30
0.0
 10
310.3768345786584
 20
-15.18373636281113
 30
0.0
 10
310.2246943659737
 20
-15.03864513844399
 30
0.0
  0
SPLINE
  5
B8
330
1F
100
AcDbEntity
  8
1
  6
Continuous
 62
   163
370
    18
100
AcDbSpline
210
0.0
220
0.0
230
1.0
 70
     8
 71
     3
 72
    56
 73
    52
 74
     0
 42
0.000000001
 43
0.0000000001
 40
0.0
 40
0.0
 40
0.0
 40
0.0
 40
0.0588235294117647
 40
0.0588235294117647
 40
0.0588235294117647
 40
0.1176470588235294
 40
0.1176470588235294
 40
0.1176470588235294
 40
0.1764705882352942
 40
0.1764705882352942
 40
0.1764705882352942
 40
0.2352941176470589
 40
0.2352941176470589
 40
0.2352941176470589
 40
0.2941176470588235
 40
0.2941176470588235
 40
0.2941176470588235
 40
0.3529411764705882
 40
0.3529411764705882
 40
0.3529411764705882
 40
0.4117647058823529
 40
0.4117647058823529
 40
0.4117647058823529
 40
0.4705882352941176
 40
0.4705882352941176
 40
0.4705882352941176
 40
0.5294117647058824
 40
0.5294117647058824
 40
0.5294117647058824
 40
0.5882352941176471
 40
0.5882352941176471
 40
0.5882352941176471
 40
0.6470588235294117
 40
0.6470588235294117
 40
0.6470588235294117
 40
0.7058823529411764
 40
0.7058823529411764
 40
0.7058823529411764
 40
0.7647058823529411
 40
0.7647058823529411
 40
0.7647058823529411
 40
0.8235294117647058
 40
0.8235294117647058
 40
0.8235294117647058
 40
0.8823529411764706
 40
0.8823529411764706
 40
0.8823529411764706
 40
0.9411764705882353
 40
0.9411764705882353
 40
0.9411764705882353
 40
1.0
 40
1.0
 40
1.0
 40
1.0
 10
252.2748556560404
 20
5.495106865103301
 30
0.0
 10
252.6077838779285
 20
4.993560467473845
 30
0.0
 10
253.0956132127584
 20
3.934009183179835
 30
0.0
 10
252.5937316061171
 20
3.835360735061587
 30
0.0
 10
252.3096064184043
 20
3.779513881006211
 30
0.0
 10
251.7756698526747
 20
4.470230462281795
 30
0.0
 10
251.4423610482506
 20
4.881944436286227
 30
0.0
 10
251.060491183925
 20
5.353642625194464
 30
0.0
 10
250.4428240114632
 20
6.028472213777309
 30
0.0
 10
250.0471253828883
 20
6.263706232762456
 30
0.0
 10
249.9314066531068
 20
6.332498439539598
 30
0.0
 10
249.8288218243305
 20
6.436768280206256
 30
0.0
 10
249.6944380732459
 20
6.444776147472943
 30
0.0
 10
249.2807031180637
 20
6.469430427309207
 30
0.0
 10
249.2068480702201
 20
5.967618179714799
 30
0.0
 10
249.2959445123413
 20
5.67828223327398
 30
0.0
 10
249.5131462383933
 20
4.972931206008773
 30
0.0
 10
249.7461843889784
 20
4.113273398532652
 30
0.0
 10
250.248072908661
 20
3.549990964775207
 30
0.0
 10
250.425265972936
 20
3.351122617372231
 30
0.0
 10
250.7683037176425
 20
3.245277513590609
 30
0.0
 10
250.8463354578437
 20
2.987024905743184
 30
0.0
 10
250.8749909031366
 20
2.892187299189188
 30
0.0
 10
250.6649978621945
 20
2.54880916990468
 30
0.0
 10
250.4134258633226
 20
2.397800918388671
 30
0.0
 10
249.7644317345606
 20
2.008236622409922
 30
0.0
 10
248.7372189671721
 20
2.014946917610783
 30
0.0
 10
248.0080987687145
 20
1.98144700053138
 30
0.0
 10
247.6074564793931
 20
1.96303922154081
 30
0.0
 10
247.115779893682
 20
1.879905411519913
 30
0.0
 10
246.988570000583
 20
1.499549345749913
 30
0.0
 10
246.9332321186505
 20
1.334089737639814
 30
0.0
 10
246.9677385780828
 20
1.152109026518005
 30
0.0
 10
247.0223210266398
 20
0.9863986780242463
 30
0.0
 10
247.1804344567284
 20
0.5063719973935967
 30
0.0
 10
247.4816977661407
 20
0.0936245261429422
 30
0.0
 10
247.6348538147406
 20
-0.3903078830276831
 30
0.0
 10
247.9226195949321
 20
-1.299571268692786
 30
0.0
 10
248.0071588042489
 20
-2.278218242402857
 30
0.0
 10
248.2539943626359
 20
-3.203158337890452
 30
0.0
 10
248.4964210694775
 20
-4.111577622535456
 30
0.0
 10
248.7637943934642
 20
-5.045386407387348
 30
0.0
 10
248.8553799987246
 20
-5.967587258174349
 30
0.0
 10
248.8651743835749
 20
-6.066209634651588
 30
0.0
 10
248.8592892652614
 20
-6.189899072728658
 30
0.0
 10
248.7694343951057
 20
-6.231712984088687
 30
0.0
 10
248.6838495669713
 20
-6.2715398338874
 30
0.0
 10
248.5885174145496
 20
-6.205085356747999
 30
0.0
 10
248.5195952366517
 20
-6.140582066844516
 30
0.0
 10
247.9252334251396
 20
-5.5843272675213
 30
0.0
 10
247.6556253839722
 20
-5.137559915798437
 30
0.0
 10
247.4734610465493
 20
-4.563090277425411
 30
0.0
  0
SPLINE
  5
B9
330
1F
100
AcDbEntity
  8
1
  6
Continuous
 62
   163
370
    18
100
AcDbSpline
210
0.0
220
0.0
230
1.0
 70
     8
 71
     3
 72
    17
 73
    13
 74
     0
 42
0.000000001
 43
0.0000000001
 40
0.0
 40
0.0
 40
0.0
 40
0.0
 40
0.249999999999999
 40
0.249999999999999
 40
0.249999999999999
 40
0.5000000000000002
 40
0.5000000000000002
 40
0.5000000000000002
 40
0.7500000000000004
 40
0.7500000000000004
 40
0.7500000000000004
 40
1.0
 40
1.0
 40
1.0
 40
1.0
 10
364.3017416319622
 20
-2.967298991394363
 30
0.0
 10
364.4963640573993
 20
-3.077086002581244
 30
0.0
 10
364.8219851356907
 20
-2.973459932975823
 30
0.0
 10
365.0308098192008
 20
-3.052623266123088
 30
0.0
 10
365.221644676938
 20
-3.124966837607223
 30
0.0
 10
365.2856658034933
 20
-3.230736863230742
 30
0.0
 10
365.4735212081094
 20
-3.310498214736706
 30
0.0
 10
365.6314611389366
 20
-3.377557783053483
 30
0.0
 10
366.0386267688474
 20
-3.385677527002317
 30
0.0
 10
365.9851308624856
 20
-3.125823117671136
 30
0.0
 10
365.9491525098022
 20
-2.951059584887238
 30
0.0
 10
365.7907967519833
 20
-2.809214696372686
 30
0.0
 10
365.7069694850082
 20
-2.657197116405073
 30
0.0
  0
SPLINE
  5
BA
330
1F
100
AcDbEntity
  8
1
  6
Continuous
 62
   163
370
    18
100
AcDbSpline
210
0.0
220
0.0
230
1.0
 70
     8
 71
     3
 72
    29
 73
    25
 74
     0
 42
0.000000001
 43
0.0000000001
 40
0.0
 40
0.0
 40
0.0
 40
0.0
 40
0.126179514880333
 40
0.126179514880333
 40
0.126179514880333
 40
0.2523590297606667
 40
0.2523590297606667
 40
0.2523590297606667
 40
0.3785385446410003
 40
0.3785385446410003
 40
0.3785385446410003
 40
0.5047180595213333
 40
0.5047180595213333
 40
0.5047180595213333
 40
0.6308975744016669
 40
0.6308975744016669
 40
0.6308975744016669
 40
0.7570770892820007
 40
0.7570770892820007
 40
0.7570770892820007
 40
0.8832566041623336
 40
0.8832566041623336
 40
0.8832566041623336
 40
1.0
 40
1.0
 40
1.0
 40
1.0
 10
143.6559076921619
 20
-17.96944479265265
 30
0.0
 10
143.7457994314689
 20
-17.61674102197917
 30
0.0
 10
144.244928209501
 20
-16.88310853084193
 30
0.0
 10
144.2080401058719
 20
-16.49202129990889
 30
0.0
 10
144.1754528214714
 20
-16.14653130269967
 30
0.0
 10
143.7459328964872
 20
-15.9717536229152
 30
0.0
 10
143.7808853589577
 20
-15.59671042732688
 30
0.0
 10
143.8096919905071
 20
-15.28761257307591
 30
0.0
 10
144.1300733248272
 20
-15.05955442828579
 30
0.0
 10
144.2498920191866
 20
-14.78768333731382
 30
0.0
 10
144.4284614732952
 20
-14.38250555965269
 30
0.0
 10
144.4680252262545
 20
-13.95800793840931
 30
0.0
 10
144.4681210562729
 20
-13.51931265334765
 30
0.0
 10
144.4683877728779
 20
-12.29832450083438
 30
0.0
 10
144.7331535527846
 20
-10.99333327970295
 30
0.0
 10
144.9825460685451
 20
-9.800849017207337
 30
0.0
 10
145.0908660755887
 20
-9.282910845249557
 30
0.0
 10
145.4320910231949
 20
-8.673091214433246
 30
0.0
 10
145.3864350301316
 20
-8.148409356926415
 30
0.0
 10
145.2916801443836
 20
-7.059479599267046
 30
0.0
 10
144.9208194967811
 20
-6.015646367205748
 30
0.0
 10
144.8592226314638
 20
-4.910029657763084
 30
0.0
 10
144.8017456089705
 20
-3.878360981929001
 30
0.0
 10
144.8737630091896
 20
-2.839290591370311
 30
0.0
 10
145.0760705606395
 20
-1.825958210812231
 30
0.0
  0
SPLINE
  5
BB
330
1F
100
AcDbEntity
  8
1
  6
Continuous
 62
   163
370
    18
100
AcDbSpline
210
0.0
220
0.0
230
1.0
 70
     8
 71
     3
 72
    17
 73
    13
 74
     0
 42
0.000000001
 43
0.0000000001
 40
0.0
 40
0.0
 40
0.0
 40
0.0
 40
0.2499999999999998
 40
0.2499999999999998
 40
0.2499999999999998
 40
0.4999999999999997
 40
0.4999999999999997
 40
0.4999999999999997
 40
0.7500000000000001
 40
0.7500000000000001
 40
0.7500000000000001
 40
1.0
 40
1.0
 40
1.0
 40
1.0
 10
197.7525306919585
 20
-3.90895607244653
 30
0.0
 10
197.8702487205602
 20
-3.81849814270736
 30
0.0
 10
198.0361413615387
 20
-3.58319112938061
 30
0.0
 10
198.1927475215425
 20
-3.561121394596033
 30
0.0
 10
198.4062074666172
 20
-3.531039535907877
 30
0.0
 10
198.0335695258643
 20
-4.355646562183891
 30
0.0
 10
198.0018498720088
 20
-4.450514807193973
 30
0.0
 10
197.7793376102595
 20
-5.116012225973219
 30
0.0
 10
197.5377829567724
 20
-5.84431352440359
 30
0.0
 10
197.0574402042553
 20
-6.390637730321074
 30
0.0
 10
196.8528320539062
 20
-6.623351526205294
 30
0.0
 10
196.70639791723
 20
-6.753353013614037
 30
0.0
 10
196.4688799632349
 20
-7.112344376965944
 30
0.0
  0
SPLINE
  5
BC
330
1F
100
AcDbEntity
  8
1
  6
Continuous
 62
   163
370
    18
100
AcDbSpline
210
0.0
220
0.0
230
1.0
 70
     8
 71
     3
 72
    56
 73
    52
 74
     0
 42
0.000000001
 43
0.0000000001
 40
0.0
 40
0.0
 40
0.0
 40
0.0
 40
0.0555555555555556
 40
0.0555555555555556
 40
0.0555555555555556
 40
0.1111111111111112
 40
0.1111111111111112
 40
0.1666666666666666
 40
0.1666666666666666
 40
0.1666666666666666
 40
0.2222222222222222
 40
0.2222222222222222
 40
0.2222222222222222
 40
0.2777777777777777
 40
0.2777777777777777
 40
0.2777777777777777
 40
0.3333333333333333
 40
0.3333333333333333
 40
0.3333333333333333
 40
0.3888888888888888
 40
0.3888888888888888
 40
0.3888888888888888
 40
0.4444444444444444
 40
0.4444444444444444
 40
0.4444444444444444
 40
0.5
 40
0.5
 40
0.5555555555555555
 40
0.5555555555555555
 40
0.5555555555555555
 40
0.611111111111111
 40
0.611111111111111
 40
0.611111111111111
 40
0.6666666666666666
 40
0.6666666666666666
 40
0.7222222222222222
 40
0.7222222222222222
 40
0.7222222222222222
 40
0.7777777777777777
 40
0.7777777777777777
 40
0.7777777777777777
 40
0.8333333333333333
 40
0.8333333333333333
 40
0.8333333333333333
 40
0.8888888888888888
 40
0.8888888888888888
 40
0.8888888888888888
 40
0.9444444444444443
 40
0.9444444444444443
 40
0.9444444444444443
 40
1.0
 40
1.0
 40
1.0
 40
1.0
 10
201.6697822532467
 20
1.20833782326131
 30
0.0
 10
201.8621918050613
 20
0.9508136459269775
 30
0.0
 10
201.9270361929125
 20
0.7659362817131788
 30
0.0
 10
201.8714943499081
 20
0.5824106008332796
 30
0.0
 10
201.8064138533744
 20
0.3673665584991576
 30
0.0
 10
201.5263792745567
 20
0.2832254857935874
 30
0.0
 10
201.0978656938861
 20
0.4184799089283903
 30
0.0
 10
200.9360248953077
 20
0.5908514085698896
 30
0.0
 10
200.7825319249159
 20
0.7549224906949266
 30
0.0
 10
200.4492210531166
 20
1.111203793223329
 30
0.0
 10
200.1043077040065
 20
1.462203889015117
 30
0.0
 10
199.6999042608267
 20
1.735133047729433
 30
0.0
 10
198.8249877440682
 20
2.325608309232029
 30
0.0
 10
197.6860288083894
 20
2.507409255490162
 30
0.0
 10
196.6707677830025
 20
2.218644661948932
 30
0.0
 10
196.1845798505053
 20
2.080361149431838
 30
0.0
 10
195.7035243878127
 20
1.837884397504163
 30
0.0
 10
195.2016179216928
 20
1.897808786785361
 30
0.0
 10
194.9225992097775
 20
1.931121818272707
 30
0.0
 10
194.656001259483
 20
2.057785096842436
 30
0.0
 10
194.3750654347294
 20
2.051763293554198
 30
0.0
 10
194.2836439837677
 20
2.049803693013757
 30
0.0
 10
194.1870626617859
 20
2.030953001858907
 30
0.0
 10
194.1200241507032
 20
1.96876329423931
 30
0.0
 10
194.0148925760693
 20
1.871235742053515
 30
0.0
 10
194.0193957607191
 20
1.695418787395302
 30
0.0
 10
194.1652898400467
 20
1.448493691007136
 30
0.0
 10
194.2898671363629
 20
1.365867554405573
 30
0.0
 10
194.4119523201687
 20
1.290638043591567
 30
0.0
 10
195.0698338332951
 20
0.8852481112243648
 30
0.0
 10
195.7815469472405
 20
0.5673374849050651
 30
0.0
 10
196.5224885767961
 20
0.3478959622581247
 30
0.0
 10
196.7848366016111
 20
0.270197466543512
 30
0.0
 10
197.0537453584496
 20
0.203615049256662
 30
0.0
 10
197.5340279448884
 20
-0.0586497147669375
 30
0.0
 10
197.7472770099304
 20
-0.2666557338062911
 30
0.0
 10
197.8144832357729
 20
-0.5318855690982903
 30
0.0
 10
197.893017484473
 20
-0.8418215249773979
 30
0.0
 10
197.7625905067089
 20
-1.162271056171199
 30
0.0
 10
197.6348304563452
 20
-1.455367105651268
 30
0.0
 10
197.2742428193918
 20
-2.282596052270641
 30
0.0
 10
196.9136551865093
 20
-3.109824998119074
 30
0.0
 10
196.5530675533749
 20
-3.937053943857552
 30
0.0
 10
196.4682506640257
 20
-4.131633512067606
 30
0.0
 10
196.4094416448908
 20
-4.411151227540016
 30
0.0
 10
196.5963746784453
 20
-4.511705461881789
 30
0.0
 10
196.7257043023785
 20
-4.581273911422428
 30
0.0
 10
196.8825574150598
 20
-4.504715936058907
 30
0.0
 10
197.0070301031816
 20
-4.426789859433564
 30
0.0
 10
197.2635220514429
 20
-4.266213177788869
 30
0.0
 10
197.5124068512849
 20
-4.093474160001719
 30
0.0
 10
197.7525306919585
 20
-3.90895607244653
 30
0.0
  0
SPLINE
  5
BD
330
1F
100
AcDbEntity
  8
1
  6
Continuous
 62
   163
370
    18
100
AcDbSpline
210
0.0
220
0.0
230
1.0
 70
     8
 71
     3
 72
    14
 73
    10
 74
     0
 42
0.000000001
 43
0.0000000001
 40
0.0
 40
0.0
 40
0.0
 40
0.0
 40
0.4052634036640068
 40
0.4052634036640068
 40
0.4052634036640068
 40
0.8105268073280127
 40
0.8105268073280127
 40
0.8105268073280127
 40
1.0
 40
1.0
 40
1.0
 40
1.0
 10
200.1371364469212
 20
-2.508028274214241
 30
0.0
 10
199.9422152283245
 20
-3.314215584377763
 30
0.0
 10
199.9211688522044
 20
-4.212130286633302
 30
0.0
 10
199.5675594870483
 20
-4.971640226781773
 30
0.0
 10
199.1853477936223
 20
-5.792584491846348
 30
0.0
 10
198.4786620808551
 20
-6.619134401463819
 30
0.0
 10
197.715388544898
 20
-7.112500005159655
 30
0.0
 10
197.5977761540006
 20
-7.188522434215052
 30
0.0
 10
197.5111567078438
 20
-7.274485027498836
 30
0.0
 10
197.4123582788596
 20
-7.291388146018509
 30
0.0
  0
SPLINE
  5
BE
330
1F
100
AcDbEntity
  8
1
  6
Continuous
 62
   163
370
    18
100
AcDbSpline
210
0.0
220
0.0
230
1.0
 70
     8
 71
     3
 72
    14
 73
    10
 74
     0
 42
0.000000001
 43
0.0000000001
 40
0.0
 40
0.0
 40
0.0
 40
0.0
 40
0.3333333333333326
 40
0.3333333333333326
 40
0.3333333333333326
 40
0.6666666666666674
 40
0.6666666666666674
 40
0.6666666666666674
 40
1.0
 40
1.0
 40
1.0
 40
1.0
 10
353.3192001911409
 20
7.182551362699602
 30
0.0
 10
353.057060096922
 20
7.013310176493724
 30
0.0
 10
354.1100404387017
 20
6.089709207495436
 30
0.0
 10
354.5710647254444
 20
5.675694435278507
 30
0.0
 10
355.5360935983617
 20
4.809067187012628
 30
0.0
 10
356.3496526886904
 20
4.102893510554671
 30
0.0
 10
357.2838856295073
 20
3.103730494820872
 30
0.0
 10
357.3819158602248
 20
2.998887070148684
 30
0.0
 10
357.5058546115114
 20
2.894221708445045
 30
0.0
 10
357.5066685558478
 20
2.750689804298944
 30
0.0
  0
SPLINE
  5
BF
330
1F
100
AcDbEntity
  8
1
  6
Continuous
 62
   163
370
    18
100
AcDbSpline
210
0.0
220
0.0
230
1.0
 70
     8
 71
     3
 72
    17
 73
    13
 74
     0
 42
0.000000001
 43
0.0000000001
 40
0.0
 40
0.0
 40
0.0
 40
0.0
 40
0.2500000000000017
 40
0.2500000000000017
 40
0.2500000000000017
 40
0.5000000000000008
 40
0.5000000000000008
 40
0.5000000000000008
 40
0.7500000000000008
 40
0.7500000000000008
 40
0.7500000000000008
 40
1.0
 40
1.0
 40
1.0
 40
1.0
 10
357.5066685558478
 20
2.750689804298944
 30
0.0
 10
357.5084634025109
 20
2.463327374973203
 30
0.0
 10
357.1938634675281
 20
2.483469412724353
 30
0.0
 10
356.9906974573827
 20
2.499757436837207
 30
0.0
 10
356.6526187077664
 20
2.526861551456847
 30
0.0
 10
356.3143530202069
 20
2.5514800076466
 30
0.0
 10
355.9761008477154
 20
2.576298901318597
 30
0.0
 10
355.2875660589252
 20
2.626819409691329
 30
0.0
 10
354.5988749421124
 20
2.67828110176549
 30
0.0
 10
353.9127571940115
 20
2.755891229374181
 30
0.0
 10
353.8014469261021
 20
2.768482077112083
 30
0.0
 10
353.7053691320688
 20
2.648204333115342
 30
0.0
 10
353.7477975599679
 20
2.544802193882371
 30
0.0
  0
SPLINE
  5
C0
330
1F
100
AcDbEntity
  8
1
  6
Continuous
 62
   163
370
    18
100
AcDbSpline
210
0.0
220
0.0
230
1.0
 70
     8
 71
     3
 72
    14
 73
    10
 74
     0
 42
0.000000001
 43
0.0000000001
 40
0.0
 40
0.0
 40
0.0
 40
0.0
 40
0.3333333333333348
 40
0.3333333333333348
 40
0.3333333333333348
 40
0.6666666666666652
 40
0.6666666666666652
 40
0.6666666666666652
 40
1.0
 40
1.0
 40
1.0
 40
1.0
 10
353.7477975599679
 20
2.544802193882371
 30
0.0
 10
353.8514157564459
 20
2.292704403362711
 30
0.0
 10
354.2671539440693
 20
2.235981765539477
 30
0.0
 10
354.4915129731401
 20
2.15545995149017
 30
0.0
 10
354.8380265299999
 20
2.031097226679907
 30
0.0
 10
355.1842874251512
 20
1.90597380372752
 30
0.0
 10
355.5285054746047
 20
1.775363753817651
 30
0.0
 10
356.2207638731192
 20
1.512693321154237
 30
0.0
 10
356.9121882564853
 20
1.247791715219562
 30
0.0
 10
357.6064226559612
 20
0.9903648971616232
 30
0.0
  0
SPLINE
  5
C1
330
1F
100
AcDbEntity
  8
1
  6
Continuous
 62
   163
370
    18
100
AcDbSpline
210
0.0
220
0.0
230
1.0
 70
     8
 71
     3
 72
    44
 73
    40
 74
     0
 42
0.000000001
 43
0.0000000001
 40
0.0
 40
0.0
 40
0.0
 40
0.0
 40
0.0769230769230764
 40
0.0769230769230764
 40
0.0769230769230764
 40
0.1538461538461533
 40
0.1538461538461533
 40
0.1538461538461533
 40
0.2307692307692299
 40
0.2307692307692299
 40
0.2307692307692299
 40
0.3076923076923077
 40
0.3076923076923077
 40
0.3076923076923077
 40
0.3846153846153844
 40
0.3846153846153844
 40
0.3846153846153844
 40
0.4615384615384612
 40
0.4615384615384612
 40
0.4615384615384612
 40
0.5384615384615388
 40
0.5384615384615388
 40
0.5384615384615388
 40
0.6153846153846154
 40
0.6153846153846154
 40
0.6153846153846154
 40
0.6923076923076923
 40
0.6923076923076923
 40
0.6923076923076923
 40
0.7692307692307689
 40
0.7692307692307689
 40
0.7692307692307689
 40
0.8461538461538464
 40
0.8461538461538464
 40
0.8461538461538464
 40
0.9230769230769234
 40
0.9230769230769234
 40
0.9230769230769234
 40
1.0
 40
1.0
 40
1.0
 40
1.0
 10
357.6064226559612
 20
0.9903648971616232
 30
0.0
 10
357.9813710794728
 20
0.8513369567056152
 30
0.0
 10
358.775000111665
 20
0.6486108677072923
 30
0.0
 10
359.0784645263126
 20
0.2924818506333274
 30
0.0
 10
359.7961395377612
 20
-0.5497417646215876
 30
0.0
 10
360.5014225894836
 20
-1.186155966895218
 30
0.0
 10
360.5278644932026
 20
-1.247569451069917
 30
0.0
 10
360.6320094977972
 20
-1.489454742669569
 30
0.0
 10
360.7094019889974
 20
-2.503743779985399
 30
0.0
 10
360.6765585226057
 20
-3.344654131824399
 30
0.0
 10
360.6462009066835
 20
-4.121917809830098
 30
0.0
 10
360.5078459554773
 20
-4.894102121282662
 30
0.0
 10
360.2739651799013
 20
-5.635727502082078
 30
0.0
 10
359.8290037493258
 20
-7.046680110645378
 30
0.0
 10
358.8484292087413
 20
-8.479474042961629
 30
0.0
 10
358.0889308405258
 20
-9.765076052746986
 30
0.0
 10
357.7474580481236
 20
-10.34308665365283
 30
0.0
 10
357.5046391252067
 20
-10.72929326246797
 30
0.0
 10
357.0303927806085
 20
-11.20446725938394
 30
0.0
 10
356.8673317959909
 20
-11.36784720038788
 30
0.0
 10
356.6143624684177
 20
-11.64858074552778
 30
0.0
 10
356.5848378738172
 20
-11.87500000396909
 30
0.0
 10
356.5636719418865
 20
-12.0373180536087
 30
0.0
 10
356.8325117930983
 20
-12.08300230124874
 30
0.0
 10
356.9962040223177
 20
-12.08300470149613
 30
0.0
 10
357.8342591697996
 20
-12.08301699004328
 30
0.0
 10
358.2752313919115
 20
-11.56631944849078
 30
0.0
 10
358.7146085942049
 20
-11.66749797261852
 30
0.0
 10
359.2699778798423
 20
-11.79538682159241
 30
0.0
 10
359.7356392539211
 20
-11.50639572652547
 30
0.0
 10
360.1894851135845
 20
-11.23365546575096
 30
0.0
 10
361.5098438022346
 20
-10.44018128197089
 30
0.0
 10
362.6569413219324
 20
-9.370439359961217
 30
0.0
 10
363.5783610976807
 20
-8.138489534668327
 30
0.0
 10
363.8520722457598
 20
-7.772534288284776
 30
0.0
 10
364.1069403815894
 20
-7.390015545694885
 30
0.0
 10
364.3099930209476
 20
-6.979876635731163
 30
0.0
 10
364.5041041303268
 20
-6.587798408802931
 30
0.0
 10
364.6929362337481
 20
-6.179977416972623
 30
0.0
 10
364.6026731994936
 20
-5.739927156560343
 30
0.0
  0
SPLINE
  5
C2
330
1F
100
AcDbEntity
  8
1
  6
Continuous
 62
   163
370
    18
100
AcDbSpline
210
0.0
220
0.0
230
1.0
 70
     8
 71
     3
 72
    14
 73
    10
 74
     0
 42
0.000000001
 43
0.0000000001
 40
0.0
 40
0.0
 40
0.0
 40
0.0
 40
0.413850860594092
 40
0.413850860594092
 40
0.413850860594092
 40
0.8277017211881813
 40
0.8277017211881813
 40
0.8277017211881813
 40
1.0
 40
1.0
 40
1.0
 40
1.0
 10
364.6026731994936
 20
-5.739927156560343
 30
0.0
 10
364.500419413478
 20
-5.241471925140375
 30
0.0
 10
364.1592212742801
 20
-4.832855237551871
 30
0.0
 10
363.8577895336731
 20
-4.439381650382073
 30
0.0
 10
363.8281930417816
 20
-4.400747902626314
 30
0.0
 10
363.7918325445629
 20
-4.353363872947744
 30
0.0
 10
363.7509143274821
 20
-4.298886888259097
 30
0.0
 10
363.5828184937633
 20
-4.075090378708373
 30
0.0
 10
363.3378046352508
 20
-3.731590134525887
 30
0.0
 10
363.1688343554918
 20
-3.383288513889794
 30
0.0
  0
SPLINE
  5
C3
330
1F
100
AcDbEntity
  8
1
  6
Continuous
 62
   163
370
    18
100
AcDbSpline
210
0.0
220
0.0
230
1.0
 70
     8
 71
     3
 72
    65
 73
    61
 74
     0
 42
0.000000001
 43
0.0000000001
 40
0.0
 40
0.0
 40
0.0
 40
0.0
 40
0.0476190476190477
 40
0.0476190476190477
 40
0.0952380952380952
 40
0.0952380952380952
 40
0.0952380952380952
 40
0.1428571428571428
 40
0.1428571428571428
 40
0.1428571428571428
 40
0.1904761904761905
 40
0.1904761904761905
 40
0.1904761904761905
 40
0.2380952380952381
 40
0.2380952380952381
 40
0.2380952380952381
 40
0.2857142857142857
 40
0.2857142857142857
 40
0.2857142857142857
 40
0.3333333333333333
 40
0.3333333333333333
 40
0.3333333333333333
 40
0.3809523809523809
 40
0.3809523809523809
 40
0.3809523809523809
 40
0.4285714285714286
 40
0.4285714285714286
 40
0.4285714285714286
 40
0.4761904761904762
 40
0.4761904761904762
 40
0.4761904761904762
 40
0.5238095238095238
 40
0.5238095238095238
 40
0.5238095238095238
 40
0.5714285714285714
 40
0.5714285714285714
 40
0.5714285714285714
 40
0.6190476190476191
 40
0.6190476190476191
 40
0.6190476190476191
 40
0.6666666666666666
 40
0.6666666666666666
 40
0.7142857142857143
 40
0.7142857142857143
 40
0.7142857142857143
 40
0.7619047619047619
 40
0.7619047619047619
 40
0.8095238095238095
 40
0.8095238095238095
 40
0.8095238095238095
 40
0.8571428571428571
 40
0.8571428571428571
 40
0.8571428571428571
 40
0.9047619047619048
 40
0.9047619047619048
 40
0.9047619047619048
 40
0.9523809523809523
 40
0.9523809523809523
 40
0.9523809523809523
 40
1.0
 40
1.0
 40
1.0
 40
1.0
 10
145.0762156721268
 20
-1.825987181710873
 30
0.0
 10
145.1276808537972
 20
-1.580763692628596
 30
0.0
 10
145.2303466140311
 20
-1.375258013576158
 30
0.0
 10
145.60029605232
 20
-1.416906650690507
 30
0.0
 10
145.7303299377987
 20
-1.584165821847207
 30
0.0
 10
145.825769766553
 20
-1.743979895236748
 30
0.0
 10
146.2897517351451
 20
-2.520918091248766
 30
0.0
 10
146.4636730651814
 20
-3.466647934295266
 30
0.0
 10
146.3064602961821
 20
-4.35782483521123
 30
0.0
 10
146.2545474557638
 20
-4.652098160057276
 30
0.0
 10
146.1680741378012
 20
-4.939867212096376
 30
0.0
 10
146.1261726860895
 20
-5.235732042817178
 30
0.0
 10
145.9790269130953
 20
-6.274723711120846
 30
0.0
 10
146.3878408213066
 20
-7.303924032302518
 30
0.0
 10
146.5050456840043
 20
-8.346717676910934
 30
0.0
 10
146.6727237441257
 20
-9.838580824994812
 30
0.0
 10
146.246784982121
 20
-11.40218585592122
 30
0.0
 10
146.7314908676991
 20
-12.82304186136981
 30
0.0
 10
146.7955888764581
 20
-13.01093733240165
 30
0.0
 10
146.8841288906641
 20
-13.20468303472259
 30
0.0
 10
147.0514160797972
 20
-13.31158607026536
 30
0.0
 10
147.2731725927933
 20
-13.45329712724179
 30
0.0
 10
147.5727602598892
 20
-13.3991934336289
 30
0.0
 10
147.8002538413022
 20
-13.26688831308577
 30
0.0
 10
148.2352909883468
 20
-13.01388054986463
 30
0.0
 10
148.4785176461401
 20
-12.53259993052042
 30
0.0
 10
148.6708052800898
 20
-12.0675239109192
 30
0.0
 10
149.15106889656
 20
-10.90593547946735
 30
0.0
 10
149.4636405765463
 20
-9.67516668768787
 30
0.0
 10
149.5958315793819
 20
-8.425180177627402
 30
0.0
 10
149.6185590303993
 20
-8.210271397374031
 30
0.0
 10
149.6359985244548
 20
-7.994604371589054
 30
0.0
 10
149.6386922203669
 20
-7.778513987621767
 30
0.0
 10
149.6483468908845
 20
-7.004008799474094
 30
0.0
 10
149.4648368363615
 20
-6.227827068312351
 30
0.0
 10
149.1093645422347
 20
-5.53964762447787
 30
0.0
 10
148.9406604733109
 20
-5.213043626802531
 30
0.0
 10
148.7327218461564
 20
-4.9029780778703
 30
0.0
 10
148.6218169177959
 20
-4.552505073521568
 30
0.0
 10
148.4661571718922
 20
-4.06060142587071
 30
0.0
 10
148.5148783247546
 20
-3.522080326043748
 30
0.0
 10
148.8189839321359
 20
-2.5360192737723
 30
0.0
 10
149.0693099216776
 20
-2.079944487599822
 30
0.0
 10
149.3202925704084
 20
-1.629159766421138
 30
0.0
 10
149.3796200772319
 20
-1.522602863954437
 30
0.0
 10
149.4447101791693
 20
-1.410456564960919
 30
0.0
 10
149.6602440359549
 20
-1.296256537573533
 30
0.0
 10
149.8223624445651
 20
-1.325064144027555
 30
0.0
 10
149.8626205925433
 20
-1.440187573182413
 30
0.0
 10
149.8880402523924
 20
-1.512878408621635
 30
0.0
 10
149.8586067624339
 20
-1.59195279521028
 30
0.0
 10
149.8320835465713
 20
-1.664248208479687
 30
0.0
 10
149.5786956588904
 20
-2.354917927877374
 30
0.0
 10
149.5733698017231
 20
-3.118786493231874
 30
0.0
 10
149.7144876773884
 20
-3.840808853815227
 30
0.0
 10
149.7566656094734
 20
-4.056610076338944
 30
0.0
 10
149.780166154225
 20
-4.278955198144925
 30
0.0
 10
149.8345591024984
 20
-4.492142271085919
 30
0.0
 10
149.9727740717161
 20
-5.033860373514453
 30
0.0
 10
150.3758556565349
 20
-5.500287540570654
 30
0.0
 10
150.4926650682005
 20
-6.038495183410934
 30
0.0
  0
SPLINE
  5
C4
330
1F
100
AcDbEntity
  8
1
  6
Continuous
 62
   163
370
    18
100
AcDbSpline
210
0.0
220
0.0
230
1.0
 70
     8
 71
     3
 72
    20
 73
    16
 74
     0
 42
0.000000001
 43
0.0000000001
 40
0.0
 40
0.0
 40
0.0
 40
0.0
 40
0.0360801025327586
 40
0.0360801025327586
 40
0.0360801025327586
 40
0.2770600768995714
 40
0.2770600768995714
 40
0.2770600768995714
 40
0.5180400512663809
 40
0.5180400512663809
 40
0.5180400512663809
 40
0.7590200256331905
 40
0.7590200256331905
 40
0.7590200256331905
 40
1.0
 40
1.0
 40
1.0
 40
1.0
 10
359.4128524658516
 20
2.332324509343741
 30
0.0
 10
359.3732202328259
 20
2.353480050144917
 30
0.0
 10
359.3347908486563
 20
2.37757827177959
 30
0.0
 10
359.2979078165138
 20
2.404397222319415
 30
0.0
 10
359.0630528863206
 20
2.575168506321824
 30
0.0
 10
358.8815745681928
 20
2.797134684288834
 30
0.0
 10
358.6929723736891
 20
3.012307817313777
 30
0.0
 10
358.0117864260224
 20
3.789461629960467
 30
0.0
 10
357.2225407278014
 20
4.517958981303264
 30
0.0
 10
356.4611460230348
 20
5.216249517400727
 30
0.0
 10
355.6910924158751
 20
5.922481308613524
 30
0.0
 10
354.8660012873146
 20
6.577161158725642
 30
0.0
 10
353.9453372233065
 20
7.077182704219071
 30
0.0
 10
353.751298953329
 20
7.182566762782887
 30
0.0
 10
353.5151820775855
 20
7.284272228600078
 30
0.0
 10
353.3192001911409
 20
7.182551362699602
 30
0.0
  0
SPLINE
  5
C5
330
1F
100
AcDbEntity
  8
1
  6
Continuous
 62
   163
370
    18
100
AcDbSpline
210
0.0
220
0.0
230
1.0
 70
     8
 71
     3
 72
    48
 73
    44
 74
     0
 42
0.000000001
 43
0.0000000001
 40
0.0
 40
0.0
 40
0.0
 40
0.0
 40
0.0666666666666667
 40
0.0666666666666667
 40
0.0666666666666667
 40
0.1333333333333333
 40
0.1333333333333333
 40
0.1333333333333333
 40
0.2000000000000001
 40
0.2000000000000001
 40
0.2000000000000001
 40
0.2666666666666667
 40
0.2666666666666667
 40
0.2666666666666667
 40
0.3333333333333333
 40
0.3333333333333333
 40
0.3333333333333333
 40
0.3999999999999999
 40
0.3999999999999999
 40
0.3999999999999999
 40
0.4666666666666667
 40
0.4666666666666667
 40
0.4666666666666667
 40
0.5333333333333333
 40
0.5333333333333333
 40
0.5333333333333333
 40
0.6
 40
0.6
 40
0.6666666666666667
 40
0.6666666666666667
 40
0.6666666666666667
 40
0.7333333333333333
 40
0.7333333333333333
 40
0.7999999999999999
 40
0.7999999999999999
 40
0.7999999999999999
 40
0.8666666666666666
 40
0.8666666666666666
 40
0.8666666666666666
 40
0.9333333333333333
 40
0.9333333333333333
 40
0.9333333333333333
 40
1.0
 40
1.0
 40
1.0
 40
1.0
 10
363.16917121762
 20
-3.383125093208782
 30
0.0
 10
363.0912280318317
 20
-3.248815985503816
 30
0.0
 10
362.8932574016968
 20
-2.931490702619364
 30
0.0
 10
362.7165965287662
 20
-3.048326837596129
 30
0.0
 10
362.6060343772239
 20
-3.121448034421569
 30
0.0
 10
362.6067273608954
 20
-3.282625162063208
 30
0.0
 10
362.6322953538464
 20
-3.412690450614371
 30
0.0
 10
362.797258886918
 20
-4.251865804365332
 30
0.0
 10
363.4679549986108
 20
-4.944317180780495
 30
0.0
 10
363.5432691685719
 20
-5.796230330074532
 30
0.0
 10
363.6169481982233
 20
-6.629647656716274
 30
0.0
 10
363.1031787777023
 20
-7.396695603012211
 30
0.0
 10
362.549124198742
 20
-8.023621913717012
 30
0.0
 10
361.9596115745107
 20
-8.69066987010552
 30
0.0
 10
361.2310022022613
 20
-9.323790246882648
 30
0.0
 10
360.3460149910503
 20
-9.420101211804859
 30
0.0
 10
360.1218791140158
 20
-9.444493363824032
 30
0.0
 10
359.8626374654455
 20
-9.41763161664755
 30
0.0
 10
359.7260533496762
 20
-9.238253110375037
 30
0.0
 10
359.5474034618263
 20
-9.003628828863395
 30
0.0
 10
359.681130021002
 20
-8.669258140822617
 30
0.0
 10
359.818911630008
 20
-8.408527313804687
 30
0.0
 10
360.1792142218093
 20
-7.726709229266181
 30
0.0
 10
360.5395168136482
 20
-7.044891144747202
 30
0.0
 10
360.8998194238341
 20
-6.363073065411902
 30
0.0
 10
361.0855479312403
 20
-6.011610015693107
 30
0.0
 10
361.2721238641332
 20
-5.65818686801341
 30
0.0
 10
361.5239000978896
 20
-4.903982435856068
 30
0.0
 10
361.5871114394855
 20
-4.508874002256972
 30
0.0
 10
361.6335824618507
 20
-4.113998206873316
 30
0.0
 10
361.719542410043
 20
-3.383575220979828
 30
0.0
 10
361.7494413277225
 20
-2.639448440035601
 30
0.0
 10
361.4854082455229
 20
-1.192412180793502
 30
0.0
 10
361.182210729635
 20
-0.48669110222695
 30
0.0
 10
360.6705129180319
 20
0.0415818386120529
 30
0.0
 10
360.5711483463253
 20
0.1441650690272925
 30
0.0
 10
360.4580216035585
 20
0.2521199403554309
 30
0.0
 10
360.4420128338778
 20
0.3940366178113949
 30
0.0
 10
360.4137265811709
 20
0.6447923649380085
 30
0.0
 10
360.7029121080708
 20
0.8162969003075206
 30
0.0
 10
360.9544891228684
 20
0.8359835057702635
 30
0.0
 10
361.121666996287
 20
0.8490656422235516
 30
0.0
 10
361.7295137984565
 20
0.7698784650918312
 30
0.0
 10
361.7619185908584
 20
1.002680985479329
 30
0.0
  0
SPLINE
  5
C6
330
1F
100
AcDbEntity
  8
1
  6
Continuous
 62
   163
370
    18
100
AcDbSpline
210
0.0
220
0.0
230
1.0
 70
     8
 71
     3
 72
    11
 73
     7
 74
     0
 42
0.000000001
 43
0.0000000001
 40
0.0
 40
0.0
 40
0.0
 40
0.0
 40
0.5
 40
0.5
 40
0.5
 40
1.0
 40
1.0
 40
1.0
 40
1.0
 10
361.7619185908584
 20
1.002680985479329
 30
0.0
 10
361.817708242879
 20
1.157398922110989
 30
0.0
 10
361.2804673772328
 20
1.5774962014934
 30
0.0
 10
360.8696179113738
 20
1.828211709728692
 30
0.0
 10
360.5414323780847
 20
2.028482635241531
 30
0.0
 10
359.6339112230146
 20
2.214062492508575
 30
0.0
 10
359.4131300923179
 20
2.332844605449115
 30
0.0
  0
SPLINE
  5
C7
330
1F
100
AcDbEntity
  8
1
  6
Continuous
 62
   163
370
    18
100
AcDbSpline
210
0.0
220
0.0
230
1.0
 70
     8
 71
     3
 72
    11
 73
     7
 74
     0
 42
0.000000001
 43
0.0000000001
 40
0.0
 40
0.0
 40
0.0
 40
0.0
 40
0.3408188132451232
 40
0.3408188132451232
 40
0.3408188132451232
 40
1.0
 40
1.0
 40
1.0
 40
1.0
 10
363.6043036795064
 20
-2.262049288880866
 30
0.0
 10
363.6768947412277
 20
-2.336106755338026
 30
0.0
 10
363.7293943791367
 20
-2.449665611288645
 30
0.0
 10
363.7866545280298
 20
-2.542891597954286
 30
0.0
 10
363.9061834712558
 20
-2.737498211502463
 30
0.0
 10
364.1069637452254
 20
-2.857417334217474
 30
0.0
 10
364.3017416319622
 20
-2.967298991394363
 30
0.0
  0
SPLINE
  5
C8
330
1F
100
AcDbEntity
  8
1
  6
Continuous
 62
   163
370
    18
100
AcDbSpline
210
0.0
220
0.0
230
1.0
 70
     8
 71
     3
 72
    44
 73
    40
 74
     0
 42
0.000000001
 43
0.0000000001
 40
0.0
 40
0.0
 40
0.0
 40
0.0
 40
0.0666666666666667
 40
0.0666666666666667
 40
0.1333333333333333
 40
0.1333333333333333
 40
0.2
 40
0.2
 40
0.2
 40
0.2666666666666666
 40
0.2666666666666666
 40
0.2666666666666666
 40
0.3333333333333333
 40
0.3333333333333333
 40
0.3333333333333333
 40
0.4
 40
0.4
 40
0.4
 40
0.4666666666666667
 40
0.4666666666666667
 40
0.5333333333333333
 40
0.5333333333333333
 40
0.5333333333333333
 40
0.6
 40
0.6
 40
0.6
 40
0.6666666666666666
 40
0.6666666666666666
 40
0.7333333333333333
 40
0.7333333333333333
 40
0.8
 40
0.8
 40
0.8
 40
0.8666666666666667
 40
0.8666666666666667
 40
0.8666666666666667
 40
0.9333333333333333
 40
0.9333333333333333
 40
1.0
 40
1.0
 40
1.0
 40
1.0
 10
360.7639243592959
 20
3.13146339273395
 30
0.0
 10
360.6642708586597
 20
2.89756943678213
 30
0.0
 10
360.6696844235396
 20
2.736346273328312
 30
0.0
 10
361.0072779675464
 20
2.507791968450281
 30
0.0
 10
361.2473270312577
 20
2.555660863414948
 30
0.0
 10
361.5643594338268
 20
2.811974981157452
 30
0.0
 10
361.6575225563691
 20
3.002830725248231
 30
0.0
 10
361.7343549199388
 20
3.191638579206964
 30
0.0
 10
362.0283585909472
 20
3.914123214587048
 30
0.0
 10
362.1546623291547
 20
4.704250229267175
 30
0.0
 10
362.1005362186303
 20
5.482384244847076
 30
0.0
 10
362.0861266311218
 20
5.689541014144747
 30
0.0
 10
362.0907247546295
 20
5.953442979995185
 30
0.0
 10
362.2820424343759
 20
6.034183971948423
 30
0.0
 10
362.4697550689345
 20
6.113403541914551
 30
0.0
 10
362.6618393471524
 20
5.939259545167781
 30
0.0
 10
362.7882204466644
 20
5.779448432309508
 30
0.0
 10
363.2636192142157
 20
5.178298368041526
 30
0.0
 10
363.69030618165
 20
4.522186681735492
 30
0.0
 10
364.1231222017888
 20
3.051740564392246
 30
0.0
 10
364.1105920864283
 20
2.225048303455536
 30
0.0
 10
363.7420834856811
 20
1.553046232029649
 30
0.0
 10
363.4985533100452
 20
1.108951352968197
 30
0.0
 10
363.0939841314596
 20
0.6764795926017565
 30
0.0
 10
363.1864988960647
 20
0.1785154978740309
 30
0.0
 10
363.2294712804488
 20
-0.0527849283815732
 30
0.0
 10
363.3768635940705
 20
-0.2488360648714612
 30
0.0
 10
363.6601888070123
 20
-0.6244860432462542
 30
0.0
 10
363.8048032406139
 20
-0.8236280394331545
 30
0.0
 10
363.8762736203889
 20
-1.288685097606004
 30
0.0
 10
363.7635138921142
 20
-1.561947613038624
 30
0.0
 10
363.5369901525294
 20
-1.625457581075229
 30
0.0
 10
363.4233738463261
 20
-1.657311937658931
 30
0.0
 10
363.2821302930105
 20
-1.641418637023905
 30
0.0
 10
363.2084475870514
 20
-1.733582630441199
 30
0.0
 10
363.1094046511964
 20
-1.857467772407174
 30
0.0
 10
363.2336417600804
 20
-2.035096642904584
 30
0.0
 10
363.4895629834436
 20
-2.222533208488135
 30
0.0
 10
363.5032544548916
 20
-2.171138791258294
 30
0.0
 10
363.6038428615173
 20
-2.262500982257262
 30
0.0
  0
SPLINE
  5
C9
330
1F
100
AcDbEntity
  8
1
  6
Continuous
 62
   163
370
    18
100
AcDbSpline
210
0.0
220
0.0
230
1.0
 70
     8
 71
     3
 72
    29
 73
    25
 74
     0
 42
0.000000001
 43
0.0000000001
 40
0.0
 40
0.0
 40
0.0
 40
0.0
 40
0.1381185135620213
 40
0.1381185135620213
 40
0.1381185135620213
 40
0.2762370271240439
 40
0.2762370271240439
 40
0.2762370271240439
 40
0.4143555406860653
 40
0.4143555406860653
 40
0.4143555406860653
 40
0.5524740542480875
 40
0.5524740542480875
 40
0.5524740542480875
 40
0.6905925678101097
 40
0.6905925678101097
 40
0.6905925678101097
 40
0.8287110813721313
 40
0.8287110813721313
 40
0.8287110813721313
 40
0.9668295949341535
 40
0.9668295949341535
 40
0.9668295949341535
 40
1.0
 40
1.0
 40
1.0
 40
1.0
 10
362.0533553741479
 20
9.350092565935975
 30
0.0
 10
361.461280784159
 20
10.25607726534568
 30
0.0
 10
360.8346356424365
 20
11.14651296020354
 30
0.0
 10
360.0338092167516
 20
11.87548983327266
 30
0.0
 10
359.8923086544924
 20
12.00429507009418
 30
0.0
 10
359.2801604910289
 20
12.61091920709226
 30
0.0
 10
359.028084065637
 20
12.46878688452008
 30
0.0
 10
358.7896989107992
 20
12.33437433217152
 30
0.0
 10
358.7672326495081
 20
12.13350991792585
 30
0.0
 10
359.6417743564228
 20
10.68807869409338
 30
0.0
 10
359.8552185347244
 20
10.33530091640375
 30
0.0
 10
359.6417743564228
 20
10.07071758313657
 30
0.0
 10
359.9215276877969
 20
9.64444443509513
 30
0.0
 10
360.3431371316612
 20
9.002018537976387
 30
0.0
 10
360.7721308151927
 20
8.324360497912659
 30
0.0
 10
360.9770228089368
 20
7.713759410368407
 30
0.0
 10
361.2421761657921
 20
6.923572711985127
 30
0.0
 10
361.302528978569
 20
6.063346257110032
 30
0.0
 10
361.2301799667235
 20
5.249060112742129
 30
0.0
 10
361.1758128585539
 20
4.637159801145992
 30
0.0
 10
361.0776319679593
 20
4.023822669738858
 30
0.0
 10
360.8734767000314
 20
3.442519153859298
 30
0.0
 10
360.8388424161514
 20
3.343902884027941
 30
0.0
 10
360.803572467353
 20
3.238080168557464
 30
0.0
 10
360.7639790964523
 20
3.131443069332905
 30
0.0
  0
SPLINE
  5
CA
330
1F
100
AcDbEntity
  8
1
  6
Continuous
 62
   163
370
    18
100
AcDbSpline
210
0.0
220
0.0
230
1.0
 70
     8
 71
     3
 72
    14
 73
    10
 74
     0
 42
0.000000001
 43
0.0000000001
 40
0.0
 40
0.0
 40
0.0
 40
0.0
 40
0.3443515516721654
 40
0.3443515516721654
 40
0.3443515516721654
 40
0.6887031033443298
 40
0.6887031033443298
 40
0.6887031033443298
 40
1.0
 40
1.0
 40
1.0
 40
1.0
 10
312.1633064590163
 20
1.51111876374849
 30
0.0
 10
312.1979426792945
 20
1.334395170209758
 30
0.0
 10
312.3683238493927
 20
1.279325671471262
 30
0.0
 10
312.5315772231077
 20
1.322748422434711
 30
0.0
 10
312.9339149919588
 20
1.429763746788878
 30
0.0
 10
312.9903376556228
 20
2.131986404983195
 30
0.0
 10
313.0829281624698
 20
2.449247677634795
 30
0.0
 10
313.2590461455854
 20
3.052715758357572
 30
0.0
 10
313.6272399462101
 20
4.053702317767992
 30
0.0
 10
313.7280517528172
 20
4.480086924375078
 30
0.0
  0
SPLINE
  5
CB
330
1F
100
AcDbEntity
  8
1
  6
Continuous
 62
   163
370
    18
100
AcDbSpline
210
0.0
220
0.0
230
1.0
 70
     8
 71
     3
 72
    26
 73
    22
 74
     0
 42
0.000000001
 43
0.0000000001
 40
0.0
 40
0.0
 40
0.0
 40
0.0
 40
0.1331598457590195
 40
0.1331598457590195
 40
0.1331598457590195
 40
0.2776332047991834
 40
0.2776332047991834
 40
0.2776332047991834
 40
0.4221065638393462
 40
0.4221065638393462
 40
0.4221065638393462
 40
0.5665799228795098
 40
0.5665799228795098
 40
0.5665799228795098
 40
0.7110532819196733
 40
0.7110532819196733
 40
0.7110532819196733
 40
0.855526640959837
 40
0.855526640959837
 40
0.855526640959837
 40
1.0
 40
1.0
 40
1.0
 40
1.0
 10
188.8700670745043
 20
2.220377727576973
 30
0.0
 10
189.7117911072352
 20
2.278174492729914
 30
0.0
 10
190.2161646453383
 20
2.381864564745912
 30
0.0
 10
190.8748263411702
 20
2.412499992459093
 30
0.0
 10
191.4583555378695
 20
2.439640885328886
 30
0.0
 10
191.7627327879149
 20
2.418884731499239
 30
0.0
 10
192.0103298131085
 20
2.401475686906472
 30
0.0
 10
192.1650165702211
 20
2.390599350042658
 30
0.0
 10
192.2770521482109
 20
2.349711508519998
 30
0.0
 10
192.4842633041412
 20
2.419094793314776
 30
0.0
 10
193.4969587303862
 20
2.758189157486751
 30
0.0
 10
194.4643146464339
 20
2.960775116321684
 30
0.0
 10
195.5368160376036
 20
3.006079637234283
 30
0.0
 10
196.5936751183353
 20
3.050723396877765
 30
0.0
 10
197.5677141325135
 20
3.000707069244681
 30
0.0
 10
198.6215113093111
 20
3.109450483483295
 30
0.0
 10
199.2203475259928
 20
3.171245576699989
 30
0.0
 10
199.7826005993557
 20
3.086030610024132
 30
0.0
 10
200.2701814762235
 20
2.716882470113394
 30
0.0
 10
200.8216886978595
 20
2.299335608304316
 30
0.0
 10
201.2587604048895
 20
1.758456371776136
 30
0.0
 10
201.6697822532467
 20
1.208337823261319
 30
0.0
  0
SPLINE
  5
CC
330
1F
100
AcDbEntity
  8
1
  6
Continuous
 62
   163
370
    18
100
AcDbSpline
210
0.0
220
0.0
230
1.0
 70
     8
 71
     3
 72
    36
 73
    32
 74
     0
 42
0.000000001
 43
0.0000000001
 40
0.0
 40
0.0
 40
0.0
 40
0.0
 40
0.0909090909090911
 40
0.0909090909090911
 40
0.0909090909090911
 40
0.1818181818181819
 40
0.1818181818181819
 40
0.1818181818181819
 40
0.2727272727272729
 40
0.2727272727272729
 40
0.2727272727272729
 40
0.3636363636363638
 40
0.3636363636363638
 40
0.3636363636363638
 40
0.4545454545454546
 40
0.4545454545454546
 40
0.5454545454545454
 40
0.5454545454545454
 40
0.5454545454545454
 40
0.6363636363636365
 40
0.6363636363636365
 40
0.6363636363636365
 40
0.7272727272727273
 40
0.7272727272727273
 40
0.7272727272727273
 40
0.8181818181818181
 40
0.8181818181818181
 40
0.909090909090909
 40
0.909090909090909
 40
0.909090909090909
 40
1.0
 40
1.0
 40
1.0
 40
1.0
 10
147.1632964177507
 20
-0.9402161413661486
 30
0.0
 10
147.4660545174205
 20
-0.9681538483872592
 30
0.0
 10
148.0256479088029
 20
-0.8800925993101317
 30
0.0
 10
148.0256479088029
 20
-0.7090693232044212
 30
0.0
 10
148.0256479088029
 20
-0.453819451268659
 30
0.0
 10
147.7143769203232
 20
-0.3256447837817616
 30
0.0
 10
147.2994212594712
 20
-0.2480324142831699
 30
0.0
 10
146.850750671029
 20
-0.1641140808838204
 30
0.0
 10
146.4708044376514
 20
0.0250191143978222
 30
0.0
 10
146.0305147894902
 20
0.1496615588239178
 30
0.0
 10
144.071106696007
 20
0.704354169517727
 30
0.0
 10
141.9372920119632
 20
0.7390024846964933
 30
0.0
 10
139.9395092920603
 20
0.7823368373611614
 30
0.0
 10
139.7786730370348
 20
0.7863203812738323
 30
0.0
 10
139.6103534986133
 20
0.7929815593844644
 30
0.0
 10
139.3312217396688
 20
0.9530507085128429
 30
0.0
 10
139.2999005479483
 20
1.037320829079828
 30
0.0
 10
139.3250435297184
 20
1.199340820456349
 30
0.0
 10
139.3788657312789
 20
1.31950676708625
 30
0.0
 10
139.5150424722519
 20
1.375518677767283
 30
0.0
 10
139.6388133153018
 20
1.420434266832911
 30
0.0
 10
139.8045657475412
 20
1.480584686347222
 30
0.0
 10
139.9703181260492
 20
1.54073509732381
 30
0.0
 10
140.1360705068615
 20
1.600885501948993
 30
0.0
 10
140.2606899479689
 20
1.646109044259759
 30
0.0
 10
140.389665558877
 20
1.694052771050319
 30
0.0
 10
140.5764132571888
 20
1.88227069416284
 30
0.0
 10
140.6231278824052
 20
2.036692972106822
 30
0.0
 10
140.5547253765553
 20
2.150254715422452
 30
0.0
 10
140.4883420322578
 20
2.260464249589158
 30
0.0
 10
140.4258479740772
 20
2.305132276150333
 30
0.0
 10
140.3115558699174
 20
2.362080965894926
 30
0.0
  0
SPLINE
  5
CD
330
1F
100
AcDbEntity
  8
1
  6
Continuous
 62
   163
370
    18
100
AcDbSpline
210
0.0
220
0.0
230
1.0
 70
     8
 71
     3
 72
     8
 73
     4
 74
     0
 42
0.000000001
 43
0.0000000001
 40
0.0
 40
0.0
 40
0.0
 40
0.0
 40
1.0
 40
1.0
 40
1.0
 40
1.0
 10
140.3115558699174
 20
2.362080965894926
 30
0.0
 10
140.1359519021859
 20
2.429764864850644
 30
0.0
 10
139.965179315995
 20
2.442399778469818
 30
0.0
 10
139.7189601990415
 20
2.457136793860063
 30
0.0
  0
SPLINE
  5
CE
330
1F
100
AcDbEntity
  8
1
  6
Continuous
 62
   163
370
    18
100
AcDbSpline
210
0.0
220
0.0
230
1.0
 70
     8
 71
     3
 72
    41
 73
    37
 74
     0
 42
0.000000001
 43
0.0000000001
 40
0.0
 40
0.0
 40
0.0
 40
0.0
 40
0.087164836800364
 40
0.087164836800364
 40
0.087164836800364
 40
0.174329673600728
 40
0.174329673600728
 40
0.174329673600728
 40
0.2614945104010931
 40
0.2614945104010931
 40
0.2614945104010931
 40
0.3486593472014571
 40
0.3486593472014571
 40
0.3486593472014571
 40
0.4358241840018211
 40
0.4358241840018211
 40
0.4358241840018211
 40
0.5229890208021862
 40
0.5229890208021862
 40
0.5229890208021862
 40
0.6101538576025501
 40
0.6101538576025501
 40
0.6101538576025501
 40
0.6973186944029146
 40
0.6973186944029146
 40
0.6973186944029146
 40
0.7844835312032786
 40
0.7844835312032786
 40
0.7844835312032786
 40
0.8716483680036433
 40
0.8716483680036433
 40
0.8716483680036433
 40
0.9588132048040073
 40
0.9588132048040073
 40
0.9588132048040073
 40
1.0
 40
1.0
 40
1.0
 40
1.0
 10
147.7871234375197
 20
3.522078349407633
 30
0.0
 10
148.2798780445162
 20
3.451216952255441
 30
0.0
 10
148.8376233429846
 20
3.587092169287973
 30
0.0
 10
149.328075870131
 20
3.613960176547178
 30
0.0
 10
149.9352706441053
 20
3.647223566359471
 30
0.0
 10
150.4895620131069
 20
3.334865092294557
 30
0.0
 10
151.0185552121726
 20
3.079188481098238
 30
0.0
 10
151.2761670308181
 20
2.954677774889277
 30
0.0
 10
151.5310333737747
 20
2.824455623223348
 30
0.0
 10
151.7917332706237
 20
2.706409790575943
 30
0.0
 10
152.2291907301725
 20
2.508327510205258
 30
0.0
 10
152.6970365295065
 20
2.327895267830414
 30
0.0
 10
153.1824096776875
 20
2.30944816239691
 30
0.0
 10
153.4108506154245
 20
2.300766029733503
 30
0.0
 10
153.640881624812
 20
2.331936307515645
 30
0.0
 10
153.8540460339012
 20
2.416550918097767
 30
0.0
 10
153.9655260668414
 20
2.460802393356793
 30
0.0
 10
154.0712202268067
 20
2.518897287822994
 30
0.0
 10
154.1690355199214
 20
2.588253551856255
 30
0.0
 10
154.229205102109
 20
2.630916997377834
 30
0.0
 10
154.2880658741217
 20
2.707099525798625
 30
0.0
 10
154.3605089302677
 20
2.730834231418011
 30
0.0
 10
154.3857804675684
 20
2.739114010465074
 30
0.0
 10
154.4127048897496
 20
2.741011194914895
 30
0.0
 10
154.4419143630772
 20
2.732876262790979
 30
0.0
 10
154.5450914927555
 20
2.704141100836523
 30
0.0
 10
154.6068090418309
 20
2.533408038421184
 30
0.0
 10
154.6384618673061
 20
2.439540485878866
 30
0.0
 10
154.7692294772336
 20
2.05174459999986
 30
0.0
 10
154.646008768045
 20
1.606659902592032
 30
0.0
 10
154.4920765781201
 20
1.244661258202521
 30
0.0
 10
154.3189163887289
 20
0.8374445879761432
 30
0.0
 10
154.0660113693935
 20
0.4475397435579828
 30
0.0
 10
153.7431490874189
 20
0.1429292198090342
 30
0.0
 10
153.3508363202743
 20
-0.2272056771582959
 30
0.0
 10
152.8576906080913
 20
-0.3793358801072837
 30
0.0
 10
152.3615252414728
 20
-0.5200466449984259
 30
0.0
  0
SPLINE
  5
CF
330
1F
100
AcDbEntity
  8
1
  6
Continuous
 62
   163
370
    18
100
AcDbSpline
210
0.0
220
0.0
230
1.0
 70
     8
 71
     3
 72
    11
 73
     7
 74
     0
 42
0.000000001
 43
0.0000000001
 40
0.0
 40
0.0
 40
0.0
 40
0.0
 40
0.5
 40
0.5
 40
0.5
 40
1.0
 40
1.0
 40
1.0
 40
1.0
 10
144.7690418765428
 20
-0.2861697344360911
 30
0.0
 10
145.2869071659148
 20
-0.3212388274592484
 30
0.0
 10
146.0954989229735
 20
-0.4953566247593265
 30
0.0
 10
146.6214860800404
 20
-0.7431572451563463
 30
0.0
 10
146.7963325876878
 20
-0.8255301177391601
 30
0.0
 10
146.9708252681388
 20
-0.9224513813470315
 30
0.0
 10
147.1632964177507
 20
-0.9402161413661486
 30
0.0
  0
SPLINE
  5
D0
330
1F
100
AcDbEntity
  8
1
  6
Continuous
 62
   163
370
    18
100
AcDbSpline
210
0.0
220
0.0
230
1.0
 70
     8
 71
     3
 72
    29
 73
    25
 74
     0
 42
0.000000001
 43
0.0000000001
 40
0.0
 40
0.0
 40
0.0
 40
0.0
 40
0.0769230769230905
 40
0.0769230769230905
 40
0.0769230769230905
 40
0.2162764771460801
 40
0.2162764771460801
 40
0.2162764771460801
 40
0.3556298773690698
 40
0.3556298773690698
 40
0.3556298773690698
 40
0.4949832775920595
 40
0.4949832775920595
 40
0.4949832775920595
 40
0.6343366778150497
 40
0.6343366778150497
 40
0.6343366778150497
 40
0.7736900780380392
 40
0.7736900780380392
 40
0.7736900780380392
 40
0.9130434782610289
 40
0.9130434782610289
 40
0.9130434782610289
 40
1.0
 40
1.0
 40
1.0
 40
1.0
 10
139.7189601990415
 20
2.457136793860067
 30
0.0
 10
139.104272598902
 20
2.499204247627708
 30
0.0
 10
138.4900402849479
 20
2.548369704040217
 30
0.0
 10
137.8759741839151
 20
2.598374445244999
 30
0.0
 10
137.3312766875652
 20
2.642730349754395
 30
0.0
 10
136.7865012630186
 20
2.686014672513483
 30
0.0
 10
136.2417579115548
 20
2.729779521968395
 30
0.0
 10
135.8689328123833
 20
2.759732405825364
 30
0.0
 10
135.3513774522001
 20
2.890673404796446
 30
0.0
 10
135.0643687986832
 20
2.572376288490045
 30
0.0
 10
134.64808385444
 20
2.11070973004052
 30
0.0
 10
134.9358554580837
 20
1.248959580736463
 30
0.0
 10
135.2478214128678
 20
0.8458524918658705
 30
0.0
 10
136.1983997742787
 20
-0.3824381922148679
 30
0.0
 10
138.0519164720378
 20
0.0938370455386209
 30
0.0
 10
139.3774830188511
 20
0.1056109777668987
 30
0.0
 10
140.3937528811802
 20
0.1146376784734518
 30
0.0
 10
141.4105237498725
 20
0.0665991099708281
 30
0.0
 10
142.4214158265212
 20
-0.0382024538736428
 30
0.0
 10
142.939184118901
 20
-0.0918807129123116
 30
0.0
 10
143.4554234760407
 20
-0.160416409552111
 30
0.0
 10
143.9692364368906
 20
-0.243860376579795
 30
0.0
 10
144.1360998270946
 20
-0.2709592321775249
 30
0.0
 10
144.4848532196801
 20
-0.253280286484546
 30
0.0
 10
144.7690418765411
 20
-0.2861697344358933
 30
0.0
  0
SPLINE
  5
D1
330
1F
100
AcDbEntity
  8
1
  6
Continuous
 62
   163
370
    18
100
AcDbSpline
210
0.0
220
0.0
230
1.0
 70
     8
 71
     3
 72
    82
 73
    78
 74
     0
 42
0.000000001
 43
0.0000000001
 40
0.0
 40
0.0
 40
0.0
 40
0.0
 40
0.0133333333333333
 40
0.0266666666666667
 40
0.04
 40
0.0533333333333333
 40
0.0666666666666667
 40
0.08
 40
0.0933333333333333
 40
0.1066666666666667
 40
0.12
 40
0.1333333333333333
 40
0.1466666666666667
 40
0.16
 40
0.1733333333333333
 40
0.1866666666666667
 40
0.2
 40
0.2133333333333333
 40
0.2266666666666667
 40
0.24
 40
0.2533333333333334
 40
0.2666666666666667
 40
0.28
 40
0.2933333333333333
 40
0.3066666666666666
 40
0.32
 40
0.3333333333333333
 40
0.3466666666666667
 40
0.36
 40
0.3733333333333334
 40
0.3866666666666667
 40
0.4
 40
0.4133333333333333
 40
0.4266666666666667
 40
0.44
 40
0.4533333333333333
 40
0.4666666666666667
 40
0.48
 40
0.4933333333333333
 40
0.5066666666666667
 40
0.52
 40
0.5333333333333333
 40
0.5466666666666666
 40
0.56
 40
0.5733333333333334
 40
0.5866666666666667
 40
0.6
 40
0.6133333333333333
 40
0.6266666666666667
 40
0.64
 40
0.6533333333333333
 40
0.6666666666666666
 40
0.68
 40
0.6933333333333334
 40
0.7066666666666667
 40
0.72
 40
0.7333333333333333
 40
0.7466666666666667
 40
0.76
 40
0.7733333333333333
 40
0.7866666666666666
 40
0.8
 40
0.8133333333333334
 40
0.8266666666666667
 40
0.84
 40
0.8533333333333334
 40
0.8666666666666667
 40
0.88
 40
0.8933333333333333
 40
0.9066666666666666
 40
0.92
 40
0.9333333333333333
 40
0.9466666666666667
 40
0.96
 40
0.9733333333333334
 40
0.9866666666666667
 40
1.0
 40
1.0
 40
1.0
 40
1.0
 10
152.3615252413846
 20
-0.5200466446673644
 30
0.0
 10
151.7931295657566
 20
-0.5969788679857125
 30
0.0
 10
151.2177670043797
 20
-0.6223661441520298
 30
0.0
 10
150.6448045292831
 20
-0.5957875165018035
 30
0.0
 10
150.6145152851945
 20
-0.5943824576381331
 30
0.0
 10
150.5808673883132
 20
-0.5913124211182723
 30
0.0
 10
150.560549987622
 20
-0.5688042648577529
 30
0.0
 10
150.5290377688977
 20
-0.5338941347859637
 30
0.0
 10
150.5496909297947
 20
-0.4787012279370111
 30
0.0
 10
150.5729447742798
 20
-0.4378233475463948
 30
0.0
 10
150.7578634798797
 20
-0.1127579497528543
 30
0.0
 10
151.0308118215042
 20
0.1616679827342767
 30
0.0
 10
151.3548741857252
 20
0.3483388895881672
 30
0.0
 10
151.6392006398519
 20
0.5121207001516047
 30
0.0
 10
151.9638841083495
 20
0.6112876763486458
 30
0.0
 10
152.2141264497481
 20
0.8235252426725057
 30
0.0
 10
152.464368791147
 20
1.035762808995717
 30
0.0
 10
152.6163042493377
 20
1.424443622439302
 30
0.0
 10
152.4292132987297
 20
1.694004360436714
 30
0.0
 10
152.288794832459
 20
1.896319346069035
 30
0.0
 10
152.0197857814024
 20
1.953517648925245
 30
0.0
 10
151.7769920115704
 20
1.994747304392665
 30
0.0
 10
151.0465660199938
 20
2.118783494369777
 30
0.0
 10
150.3124442284553
 20
2.243163710688965
 30
0.0
 10
149.5715977889934
 20
2.250488922593767
 30
0.0
 10
149.1538412455695
 20
2.254619544394078
 30
0.0
 10
148.735044853051
 20
2.221488192484931
 30
0.0
 10
148.3188150748847
 20
2.25740984727325
 30
0.0
 10
147.3642523204723
 20
2.339790975549188
 30
0.0
 10
146.3923193717065
 20
2.860105995697474
 30
0.0
 10
146.0279578291581
 20
3.74623091226306
 30
0.0
 10
145.7629075506377
 20
4.390831455902286
 30
0.0
 10
145.768342364005
 20
5.009692856474553
 30
0.0
 10
145.6785206948703
 20
5.342523815575082
 30
0.0
 10
145.3929312333719
 20
5.673148748862594
 30
0.0
 10
145.0443553562185
 20
5.978625034649944
 30
0.0
 10
144.6569592290376
 20
6.209682211471605
 30
0.0
 10
143.0441354059848
 20
7.273382187765597
 30
0.0
 10
141.6747098694968
 20
7.948167289988226
 30
0.0
 10
140.139690965881
 20
8.589870968342545
 30
0.0
 10
139.9272834983025
 20
8.626167116416395
 30
0.0
 10
139.7385416642329
 20
8.62396274769997
 30
0.0
 10
139.5650302283565
 20
8.521852359560086
 30
0.0
 10
139.5116534441599
 20
8.38779339496663
 30
0.0
 10
139.4965884933827
 20
8.25917428072263
 30
0.0
 10
139.5136716380962
 20
8.096977387283793
 30
0.0
 10
139.5961939756032
 20
7.936455382777479
 30
0.0
 10
139.7028089784309
 20
7.803228742342176
 30
0.0
 10
139.9971274345113
 20
7.435446893659297
 30
0.0
 10
140.4566950497077
 20
7.251945889363704
 30
0.0
 10
140.8644461224233
 20
7.016094443513476
 30
0.0
 10
141.2721971951389
 20
6.780242997663256
 30
0.0
 10
141.675127284608
 20
6.419651123725105
 30
0.0
 10
141.696735900022
 20
5.949098352588361
 30
0.0
 10
141.7016096503893
 20
5.842967016217212
 30
0.0
 10
141.6863569077135
 20
5.735507474737778
 30
0.0
 10
141.7051822170937
 20
5.63094542728021
 30
0.0
 10
141.7210729984712
 20
5.542682770319864
 30
0.0
 10
141.7606071385086
 20
5.460504370101961
 30
0.0
 10
141.8041635798905
 20
5.382110174061067
 30
0.0
 10
142.1423260492425
 20
4.773475167462071
 30
0.0
 10
142.7369082660269
 20
4.333021599553552
 30
0.0
 10
143.1001705233836
 20
3.879319264463881
 30
0.0
 10
143.2224093509272
 20
3.633078889687346
 30
0.0
 10
143.3001105567005
 20
3.358770573592775
 30
0.0
 10
143.4794966994929
 20
3.150450470689345
 30
0.0
 10
143.7057325132552
 20
2.88772408734541
 30
0.0
 10
144.0276282932604
 20
2.574154783014686
 30
0.0
 10
144.1496263825198
 20
2.249617785559887
 30
0.0
 10
144.1654355157091
 20
2.207562629204872
 30
0.0
 10
144.1762087572119
 20
2.160735159129783
 30
0.0
 10
144.1621467977122
 20
2.118064018526836
 30
0.0
 10
144.1309103431345
 20
2.023276725023223
 30
0.0
 10
144.0051651721863
 20
2.005455340468594
 30
0.0
 10
143.9058101923651
 20
2.014885880876952
 30
0.0
 10
143.2678894730314
 20
2.075435806971025
 30
0.0
 10
142.9330101517971
 20
2.485477232976177
 30
0.0
 10
142.7622916883927
 20
2.952809319437647
 30
0.0
  0
ENDSEC
  0
SECTION
  2
OBJECTS
  0
DICTIONARY
  5
C
330
0
100
AcDbDictionary
281
     1
  3
ACAD_DETAILVIEWSTYLE
350
12E
  3
ACAD_GROUP
350
D
  3
ACAD_LAYOUT
350
1A
  3
ACAD_MATERIAL
350
43
  3
ACAD_MLEADERSTYLE
350
6B
  3
ACAD_MLINESTYLE
350
17
  3
ACAD_PLOTSETTINGS
350
19
  3
ACAD_PLOTSTYLENAME
350
E
  3
ACAD_SCALELIST
350
47
  3
ACAD_SECTIONVIEWSTYLE
350
12F
  3
ACAD_TABLESTYLE
350
69
  3
ACAD_VISUALSTYLE
350
2A
  3
ACDB_RECOMPOSE_DATA
350
12B
  3
AcDbVariableDictionary
350
EB
  0
DICTIONARY
  5
E9
330
8
100
AcDbDictionary
280
     1
281
     1
  3
ACAD_XREC_ROUNDTRIP
360
EA
  0
DICTIONARY
  5
12E
102
{ACAD_REACTORS
330
C
102
}
330
C
100
AcDbDictionary
281
     1
  0
DICTIONARY
  5
D
102
{ACAD_REACTORS
330
C
102
}
330
C
100
AcDbDictionary
281
     1
  0
DICTIONARY
  5
1A
102
{ACAD_REACTORS
330
C
102
}
330
C
100
AcDbDictionary
281
     1
  3
Layout1
350
1E
  3
Layout2
350
26
  3
Model
350
22
  0
DICTIONARY
  5
43
102
{ACAD_REACTORS
330
C
102
}
330
C
100
AcDbDictionary
281
     1
  3
ByBlock
350
45
  3
ByLayer
350
44
  3
Global
350
46
  0
DICTIONARY
  5
6B
102
{ACAD_REACTORS
330
C
102
}
330
C
100
AcDbDictionary
281
     1
  3
Standard
350
6C
  0
DICTIONARY
  5
17
102
{ACAD_REACTORS
330
C
102
}
330
C
100
AcDbDictionary
281
     1
  3
Standard
350
18
  0
DICTIONARY
  5
19
102
{ACAD_REACTORS
330
C
102
}
330
C
100
AcDbDictionary
281
     1
  0
ACDBDICTIONARYWDFLT
  5
E
102
{ACAD_REACTORS
330
C
102
}
330
C
100
AcDbDictionary
281
     1
  3
Normal
350
F
100
AcDbDictionaryWithDefault
340
F
  0
DICTIONARY
  5
47
102
{ACAD_REACTORS
330
C
102
}
330
C
100
AcDbDictionary
281
     1
  3
A0
350
48
  3
A1
350
49
  3
A2
350
4A
  3
A3
350
4B
  3
A4
350
4C
  3
A5
350
4D
  3
A6
350
4E
  3
A7
350
4F
  3
A8
350
50
  3
A9
350
51
  3
B0
350
52
  3
B1
350
53
  3
B2
350
54
  3
B3
350
55
  3
B4
350
56
  3
B5
350
57
  3
B6
350
58
  3
B7
350
59
  3
B8
350
5A
  3
B9
350
5B
  3
C0
350
5C
  3
C1
350
5D
  3
C2
350
5E
  3
C3
350
5F
  3
C4
350
60
  3
C5
350
61
  3
C6
350
62
  3
C7
350
63
  3
C8
350
64
  3
C9
350
65
  3
D0
350
66
  3
D1
350
67
  3
D2
350
68
  0
DICTIONARY
  5
12F
102
{ACAD_REACTORS
330
C
102
}
330
C
100
AcDbDictionary
281
     1
  0
DICTIONARY
  5
69
102
{ACAD_REACTORS
330
C
102
}
330
C
100
AcDbDictionary
281
     1
  3
Standard
350
6A
  0
DICTIONARY
  5
2A
102
{ACAD_REACTORS
330
C
102
}
330
C
100
AcDbDictionary
281
     1
  3
2dWireframe
350
2F
  3
Basic
350
32
  3
Brighten
350
36
  3
ColorChange
350
3A
  3
Conceptual
350
34
  3
Dim
350
35
  3
EdgeColorOff
350
3D
  3
Facepattern
350
39
  3
Flat
350
2B
  3
FlatWithEdges
350
2C
  3
Gouraud
350
2D
  3
GouraudWithEdges
350
2E
  3
Hidden
350
31
  3
JitterOff
350
3B
  3
Linepattern
350
38
  3
OverhangOff
350
3C
  3
Realistic
350
33
  3
Shaded
350
42
  3
Shaded with edges
350
41
  3
Shades of Gray
350
3E
  3
Sketchy
350
3F
  3
Thicken
350
37
  3
Wireframe
350
30
  3
X-Ray
350
40
  0
XRECORD
  5
12B
102
{ACAD_REACTORS
330
C
102
}
330
C
100
AcDbXrecord
280
     1
 90
        1
330
6A
  0
DICTIONARY
  5
EB
102
{ACAD_REACTORS
330
C
102
}
330
C
100
AcDbDictionary
281
     1
  3
CANNOSCALE
350
EC
  3
CMLEADERSTYLE
350
12D
  3
CTABLESTYLE
350
12C
  3
MSLTSCALE
350
ED
  3
XCLIPFRAME
350
EE
  0
XRECORD
  5
EA
102
{ACAD_REACTORS
330
E9
102
}
330
E9
100
AcDbXrecord
280
     1
102
VTR_0.000_0.000_1.000_1.000_GRIDDISPLAY
 70
     3
102
VTR_0.000_0.000_1.000_1.000_GRIDMAJOR
 70
     5
102
VTR_0.000_0.000_1.000_1.000_DEFAULTLIGHTING
280
     1
102
VTR_0.000_0.000_1.000_1.000_DEFAULTLIGHTINGTYPE
 70
     1
102
VTR_0.000_0.000_1.000_1.000_BRIGHTNESS
141
0.0
102
VTR_0.000_0.000_1.000_1.000_CONTRAST
142
0.0
102
VTR_0.000_0.000_0.500_1.000_GRIDDISPLAY
 70
     3
102
VTR_0.000_0.000_0.500_1.000_GRIDMAJOR
 70
     5
102
VTR_0.000_0.000_0.500_1.000_DEFAULTLIGHTING
280
     1
102
VTR_0.000_0.000_0.500_1.000_DEFAULTLIGHTINGTYPE
 70
     1
102
VTR_0.000_0.000_0.500_1.000_BRIGHTNESS
141
0.0
102
VTR_0.000_0.000_0.500_1.000_CONTRAST
142
0.0
102
VTR_0.500_0.000_1.000_1.000_GRIDDISPLAY
 70
     3
102
VTR_0.500_0.000_1.000_1.000_GRIDMAJOR
 70
     5
102
VTR_0.500_0.000_1.000_1.000_DEFAULTLIGHTING
280
     1
102
VTR_0.500_0.000_1.000_1.000_DEFAULTLIGHTINGTYPE
 70
     1
102
VTR_0.500_0.000_1.000_1.000_BRIGHTNESS
141
0.0
102
VTR_0.500_0.000_1.000_1.000_CONTRAST
142
0.0
102
VTR_0.000_0.500_1.000_1.000_GRIDDISPLAY
 70
     3
102
VTR_0.000_0.500_1.000_1.000_GRIDMAJOR
 70
     5
102
VTR_0.000_0.500_1.000_1.000_DEFAULTLIGHTING
280
     1
102
VTR_0.000_0.500_1.000_1.000_DEFAULTLIGHTINGTYPE
 70
     1
102
VTR_0.000_0.500_1.000_1.000_BRIGHTNESS
141
0.0
102
VTR_0.000_0.500_1.000_1.000_CONTRAST
142
0.0
102
VTR_0.000_0.000_1.000_0.500_GRIDDISPLAY
 70
     3
102
VTR_0.000_0.000_1.000_0.500_GRIDMAJOR
 70
     5
102
VTR_0.000_0.000_1.000_0.500_DEFAULTLIGHTING
280
     1
102
VTR_0.000_0.000_1.000_0.500_DEFAULTLIGHTINGTYPE
 70
     1
102
VTR_0.000_0.000_1.000_0.500_BRIGHTNESS
141
0.0
102
VTR_0.000_0.000_1.000_0.500_CONTRAST
142
0.0
102
VTR_0.000_0.500_0.500_1.000_GRIDDISPLAY
 70
     3
102
VTR_0.000_0.500_0.500_1.000_GRIDMAJOR
 70
     5
102
VTR_0.000_0.500_0.500_1.000_DEFAULTLIGHTING
280
     1
102
VTR_0.000_0.500_0.500_1.000_DEFAULTLIGHTINGTYPE
 70
     1
102
VTR_0.000_0.500_0.500_1.000_BRIGHTNESS
141
0.0
102
VTR_0.000_0.500_0.500_1.000_CONTRAST
142
0.0
102
VTR_0.000_0.000_0.500_0.500_GRIDDISPLAY
 70
     3
102
VTR_0.000_0.000_0.500_0.500_GRIDMAJOR
 70
     5
102
VTR_0.000_0.000_0.500_0.500_DEFAULTLIGHTING
280
     1
102
VTR_0.000_0.000_0.500_0.500_DEFAULTLIGHTINGTYPE
 70
     1
102
VTR_0.000_0.000_0.500_0.500_BRIGHTNESS
141
0.0
102
VTR_0.000_0.000_0.500_0.500_CONTRAST
142
0.0
102
VTR_0.500_0.000_1.000_0.500_GRIDDISPLAY
 70
     3
102
VTR_0.500_0.000_1.000_0.500_GRIDMAJOR
 70
     5
102
VTR_0.500_0.000_1.000_0.500_DEFAULTLIGHTING
280
     1
102
VTR_0.500_0.000_1.000_0.500_DEFAULTLIGHTINGTYPE
 70
     1
102
VTR_0.500_0.000_1.000_0.500_BRIGHTNESS
141
0.0
102
VTR_0.500_0.000_1.000_0.500_CONTRAST
142
0.0
102
VTR_0.500_0.500_1.000_1.000_GRIDDISPLAY
 70
     3
102
VTR_0.500_0.500_1.000_1.000_GRIDMAJOR
 70
     5
102
VTR_0.500_0.500_1.000_1.000_DEFAULTLIGHTING
280
     1
102
VTR_0.500_0.500_1.000_1.000_DEFAULTLIGHTINGTYPE
 70
     1
102
VTR_0.500_0.500_1.000_1.000_BRIGHTNESS
141
0.0
102
VTR_0.500_0.500_1.000_1.000_CONTRAST
142
0.0
102
VTR_0.000_0.500_0.333_1.000_GRIDDISPLAY
 70
     3
102
VTR_0.000_0.500_0.333_1.000_GRIDMAJOR
 70
     5
102
VTR_0.000_0.500_0.333_1.000_DEFAULTLIGHTING
280
     1
102
VTR_0.000_0.500_0.333_1.000_DEFAULTLIGHTINGTYPE
 70
     1
102
VTR_0.000_0.500_0.333_1.000_BRIGHTNESS
141
0.0
102
VTR_0.000_0.500_0.333_1.000_CONTRAST
142
0.0
102
VTR_0.000_0.000_0.333_0.500_GRIDDISPLAY
 70
     3
102
VTR_0.000_0.000_0.333_0.500_GRIDMAJOR
 70
     5
102
VTR_0.000_0.000_0.333_0.500_DEFAULTLIGHTING
280
     1
102
VTR_0.000_0.000_0.333_0.500_DEFAULTLIGHTINGTYPE
 70
     1
102
VTR_0.000_0.000_0.333_0.500_BRIGHTNESS
141
0.0
102
VTR_0.000_0.000_0.333_0.500_CONTRAST
142
0.0
102
VTR_0.333_0.500_0.667_1.000_GRIDDISPLAY
 70
     3
102
VTR_0.333_0.500_0.667_1.000_GRIDMAJOR
 70
     5
102
VTR_0.333_0.500_0.667_1.000_DEFAULTLIGHTING
280
     1
102
VTR_0.333_0.500_0.667_1.000_DEFAULTLIGHTINGTYPE
 70
     1
102
VTR_0.333_0.500_0.667_1.000_BRIGHTNESS
141
0.0
102
VTR_0.333_0.500_0.667_1.000_CONTRAST
142
0.0
102
VTR_0.333_0.000_0.667_0.500_GRIDDISPLAY
 70
     3
102
VTR_0.333_0.000_0.667_0.500_GRIDMAJOR
 70
     5
102
VTR_0.333_0.000_0.667_0.500_DEFAULTLIGHTING
280
     1
102
VTR_0.333_0.000_0.667_0.500_DEFAULTLIGHTINGTYPE
 70
     1
102
VTR_0.333_0.000_0.667_0.500_BRIGHTNESS
141
0.0
102
VTR_0.333_0.000_0.667_0.500_CONTRAST
142
0.0
102
VTR_0.667_0.500_1.000_1.000_GRIDDISPLAY
 70
     3
102
VTR_0.667_0.500_1.000_1.000_GRIDMAJOR
 70
     5
102
VTR_0.667_0.500_1.000_1.000_DEFAULTLIGHTING
280
     1
102
VTR_0.667_0.500_1.000_1.000_DEFAULTLIGHTINGTYPE
 70
     1
102
VTR_0.667_0.500_1.000_1.000_BRIGHTNESS
141
0.0
102
VTR_0.667_0.500_1.000_1.000_CONTRAST
142
0.0
102
VTR_0.667_0.000_1.000_0.500_GRIDDISPLAY
 70
     3
102
VTR_0.667_0.000_1.000_0.500_GRIDMAJOR
 70
     5
102
VTR_0.667_0.000_1.000_0.500_DEFAULTLIGHTING
280
     1
102
VTR_0.667_0.000_1.000_0.500_DEFAULTLIGHTINGTYPE
 70
     1
102
VTR_0.667_0.000_1.000_0.500_BRIGHTNESS
141
0.0
102
VTR_0.667_0.000_1.000_0.500_CONTRAST
142
0.0
  0
LAYOUT
  5
1E
102
{ACAD_REACTORS
330
1A
102
}
330
1A
100
AcDbPlotSettings
  1

  2
none_device
  4

  6

 40
0.0
 41
0.0
 42
0.0
 43
0.0
 44
0.0
 45
0.0
 46
0.0
 47
0.0
 48
0.0
 49
0.0
140
0.0
141
0.0
142
1.0
143
1.0
 70
   688
 72
     0
 73
     0
 74
     5
  7

 75
    16
 76
     0
 77
     2
 78
   300
147
1.0
148
0.0
149
0.0
100
AcDbLayout
  1
Layout1
 70
     1
 71
     1
 10
-0.5
 20
-0.5
 11
5.0
 21
5.0
 12
0.0
 22
0.0
 32
0.0
 14
-0.5
 24
-0.5
 34
-0.5
 15
5.0
 25
5.0
 35
5.0
146
0.0
 13
0.0
 23
0.0
 33
0.0
 16
1.0
 26
0.0
 36
0.0
 17
0.0
 27
1.0
 37
0.0
 76
     0
330
1B
  0
LAYOUT
  5
26
102
{ACAD_REACTORS
330
1A
102
}
330
1A
100
AcDbPlotSettings
  1

  2
none_device
  4

  6

 40
0.0
 41
0.0
 42
0.0
 43
0.0
 44
0.0
 45
0.0
 46
0.0
 47
0.0
 48
0.0
 49
0.0
140
0.0
141
0.0
142
1.0
143
1.0
 70
   688
 72
     0
 73
     0
 74
     5
  7

 75
    16
 76
     0
 77
     2
 78
   300
147
1.0
148
0.0
149
0.0
100
AcDbLayout
  1
Layout2
 70
     1
 71
     2
 10
0.0
 20
0.0
 11
0.0
 21
0.0
 12
0.0
 22
0.0
 32
0.0
 14
0.0
 24
0.0
 34
0.0
 15
0.0
 25
0.0
 35
0.0
146
0.0
 13
0.0
 23
0.0
 33
0.0
 16
1.0
 26
0.0
 36
0.0
 17
0.0
 27
1.0
 37
0.0
 76
     0
330
23
  0
LAYOUT
  5
22
102
{ACAD_REACTORS
330
1A
102
}
330
1A
100
AcDbPlotSettings
  1

  2
none_device
  4
Letter_(8.50_x_11.00_Inches)
  6

 40
6.35
 41
6.35
 42
6.350005
 43
6.350005
 44
215.9
 45
279.4
 46
0.0
 47
0.0
 48
0.0
 49
0.0
140
0.0
141
0.0
142
1.0
143
1.0
 70
  1712
 72
     0
 73
     0
 74
     0
  7

 75
     0
 76
     0
 77
     2
 78
   300
147
1.0
148
0.0
149
0.0
100
AcDbLayout
  1
Model
 70
     1
 71
     0
 10
-0.5
 20
-0.5
 11
5.0
 21
5.0
 12
0.0
 22
0.0
 32
0.0
 14
-0.5
 24
-0.5
 34
-0.5
 15
5.0
 25
5.0
 35
5.0
146
0.0
 13
0.0
 23
0.0
 33
0.0
 16
1.0
 26
0.0
 36
0.0
 17
0.0
 27
1.0
 37
0.0
 76
     0
330
1F
331
29
  0
MATERIAL
  5
45
102
{ACAD_REACTORS
330
43
102
}
102
{ACAD_XDICTIONARY
360
121
102
}
330
43
100
AcDbMaterial
  1
ByBlock
  0
MATERIAL
  5
44
102
{ACAD_REACTORS
330
43
102
}
102
{ACAD_XDICTIONARY
360
11F
102
}
330
43
100
AcDbMaterial
  1
ByLayer
  0
MATERIAL
  5
46
102
{ACAD_REACTORS
330
43
102
}
102
{ACAD_XDICTIONARY
360
123
102
}
330
43
100
AcDbMaterial
  1
Global
  0
MLEADERSTYLE
  5
6C
102
{ACAD_REACTORS
330
6B
102
}
102
{ACAD_XDICTIONARY
360
129
102
}
330
6B
100
AcDbMLeaderStyle
170
     2
171
     1
172
     0
 90
        2
 40
0.0
 41
0.0
173
     1
 91
-1056964608
340
14
 92
       -2
290
     1
 42
0.09
291
     1
 43
0.36
  3
Standard
341
0
 44
0.18
300

342
11
174
     1
178
     6
175
     1
176
     0
 93
-1056964608
 45
0.18
292
     0
297
     0
 46
0.18
343
0
 94
-1056964608
 47
1.0
 49
1.0
140
1.0
293
     1
141
0.0
294
     1
177
     0
142
1.0
295
     0
296
     0
143
0.125
1001
ACAD_MLEADERVER
1070
     2
  0
MLINESTYLE
  5
18
102
{ACAD_REACTORS
330
17
102
}
330
17
100
AcDbMlineStyle
  2
Standard
 70
     0
  3

 62
   256
 51
90.0
 52
90.0
 71
     2
 49
0.5
 62
   256
  6
BYLAYER
 49
-0.5
 62
   256
  6
BYLAYER
  0
ACDBPLACEHOLDER
  5
F
102
{ACAD_REACTORS
330
E
102
}
330
E
  0
SCALE
  5
48
102
{ACAD_REACTORS
330
47
102
}
330
47
100
AcDbScale
 70
     0
300
1:1
140
1.0
141
1.0
290
     1
  0
SCALE
  5
49
102
{ACAD_REACTORS
330
47
102
}
330
47
100
AcDbScale
 70
     0
300
1:2
140
1.0
141
2.0
290
     0
  0
SCALE
  5
4A
102
{ACAD_REACTORS
330
47
102
}
330
47
100
AcDbScale
 70
     0
300
1:4
140
1.0
141
4.0
290
     0
  0
SCALE
  5
4B
102
{ACAD_REACTORS
330
47
102
}
330
47
100
AcDbScale
 70
     0
300
1:5
140
1.0
141
5.0
290
     0
  0
SCALE
  5
4C
102
{ACAD_REACTORS
330
47
102
}
330
47
100
AcDbScale
 70
     0
300
1:8
140
1.0
141
8.0
290
     0
  0
SCALE
  5
4D
102
{ACAD_REACTORS
330
47
102
}
330
47
100
AcDbScale
 70
     0
300
1:10
140
1.0
141
10.0
290
     0
  0
SCALE
  5
4E
102
{ACAD_REACTORS
330
47
102
}
330
47
100
AcDbScale
 70
     0
300
1:16
140
1.0
141
16.0
290
     0
  0
SCALE
  5
4F
102
{ACAD_REACTORS
330
47
102
}
330
47
100
AcDbScale
 70
     0
300
1:20
140
1.0
141
20.0
290
     0
  0
SCALE
  5
50
102
{ACAD_REACTORS
330
47
102
}
330
47
100
AcDbScale
 70
     0
300
1:30
140
1.0
141
30.0
290
     0
  0
SCALE
  5
51
102
{ACAD_REACTORS
330
47
102
}
330
47
100
AcDbScale
 70
     0
300
1:40
140
1.0
141
40.0
290
     0
  0
SCALE
  5
52
102
{ACAD_REACTORS
330
47
102
}
330
47
100
AcDbScale
 70
     0
300
1:50
140
1.0
141
50.0
290
     0
  0
SCALE
  5
53
102
{ACAD_REACTORS
330
47
102
}
330
47
100
AcDbScale
 70
     0
300
1:100
140
1.0
141
100.0
290
     0
  0
SCALE
  5
54
102
{ACAD_REACTORS
330
47
102
}
330
47
100
AcDbScale
 70
     0
300
2:1
140
2.0
141
1.0
290
     0
  0
SCALE
  5
55
102
{ACAD_REACTORS
330
47
102
}
330
47
100
AcDbScale
 70
     0
300
4:1
140
4.0
141
1.0
290
     0
  0
SCALE
  5
56
102
{ACAD_REACTORS
330
47
102
}
330
47
100
AcDbScale
 70
     0
300
8:1
140
8.0
141
1.0
290
     0
  0
SCALE
  5
57
102
{ACAD_REACTORS
330
47
102
}
330
47
100
AcDbScale
 70
     0
300
10:1
140
10.0
141
1.0
290
     0
  0
SCALE
  5
58
102
{ACAD_REACTORS
330
47
102
}
330
47
100
AcDbScale
 70
     0
300
100:1
140
100.0
141
1.0
290
     0
  0
SCALE
  5
59
102
{ACAD_REACTORS
330
47
102
}
330
47
100
AcDbScale
 70
     0
300
1/128" = 1'-0"
140
0.007812
141
12.0
290
     0
  0
SCALE
  5
5A
102
{ACAD_REACTORS
330
47
102
}
330
47
100
AcDbScale
 70
     0
300
1/64" = 1'-0"
140
0.015625
141
12.0
290
     0
  0
SCALE
  5
5B
102
{ACAD_REACTORS
330
47
102
}
330
47
100
AcDbScale
 70
     0
300
1/32" = 1'-0"
140
0.03125
141
12.0
290
     0
  0
SCALE
  5
5C
102
{ACAD_REACTORS
330
47
102
}
330
47
100
AcDbScale
 70
     0
300
1/16" = 1'-0"
140
0.0625
141
12.0
290
     0
  0
SCALE
  5
5D
102
{ACAD_REACTORS
330
47
102
}
330
47
100
AcDbScale
 70
     0
300
3/32" = 1'-0"
140
0.09375
141
12.0
290
     0
  0
SCALE
  5
5E
102
{ACAD_REACTORS
330
47
102
}
330
47
100
AcDbScale
 70
     0
300
1/8" = 1'-0"
140
0.125
141
12.0
290
     0
  0
SCALE
  5
5F
102
{ACAD_REACTORS
330
47
102
}
330
47
100
AcDbScale
 70
     0
300
3/16" = 1'-0"
140
0.1875
141
12.0
290
     0
  0
SCALE
  5
60
102
{ACAD_REACTORS
330
47
102
}
330
47
100
AcDbScale
 70
     0
300
1/4" = 1'-0"
140
0.25
141
12.0
290
     0
  0
SCALE
  5
61
102
{ACAD_REACTORS
330
47
102
}
330
47
100
AcDbScale
 70
     0
300
3/8" = 1'-0"
140
0.375
141
12.0
290
     0
  0
SCALE
  5
62
102
{ACAD_REACTORS
330
47
102
}
330
47
100
AcDbScale
 70
     0
300
1/2" = 1'-0"
140
0.5
141
12.0
290
     0
  0
SCALE
  5
63
102
{ACAD_REACTORS
330
47
102
}
330
47
100
AcDbScale
 70
     0
300
3/4" = 1'-0"
140
0.75
141
12.0
290
     0
  0
SCALE
  5
64
102
{ACAD_REACTORS
330
47
102
}
330
47
100
AcDbScale
 70
     0
300
1" = 1'-0"
140
1.0
141
12.0
290
     0
  0
SCALE
  5
65
102
{ACAD_REACTORS
330
47
102
}
330
47
100
AcDbScale
 70
     0
300
1-1/2" = 1'-0"
140
1.5
141
12.0
290
     0
  0
SCALE
  5
66
102
{ACAD_REACTORS
330
47
102
}
330
47
100
AcDbScale
 70
     0
300
3" = 1'-0"
140
3.0
141
12.0
290
     0
  0
SCALE
  5
67
102
{ACAD_REACTORS
330
47
102
}
330
47
100
AcDbScale
 70
     0
300
6" = 1'-0"
140
6.0
141
12.0
290
     0
  0
SCALE
  5
68
102
{ACAD_REACTORS
330
47
102
}
330
47
100
AcDbScale
 70
     0
300
1'-0" = 1'-0"
140
12.0
141
12.0
290
     0
  0
TABLESTYLE
  5
6A
102
{ACAD_REACTORS
330
69
102
}
102
{ACAD_XDICTIONARY
360
125
102
}
330
69
100
AcDbTableStyle
  3
Standard
 70
     0
 71
     0
 40
0.06
 41
0.06
280
     0
281
     0
  7
Standard
140
0.18
170
     2
 62
     0
 63
   257
283
     0
274
    -2
284
     1
 64
     0
275
    -2
285
     1
 65
     0
276
    -2
286
     1
 66
     0
277
    -2
287
     1
 67
     0
278
    -2
288
     1
 68
     0
279
    -2
289
     1
 69
     0
  7
Standard
140
0.25
170
     5
 62
     0
 63
   257
283
     0
274
    -2
284
     1
 64
     0
275
    -2
285
     1
 65
     0
276
    -2
286
     1
 66
     0
277
    -2
287
     1
 67
     0
278
    -2
288
     1
 68
     0
279
    -2
289
     1
 69
     0
  7
Standard
140
0.18
170
     5
 62
     0
 63
   257
283
     0
274
    -2
284
     1
 64
     0
275
    -2
285
     1
 65
     0
276
    -2
286
     1
 66
     0
277
    -2
287
     1
 67
     0
278
    -2
288
     1
 68
     0
279
    -2
289
     1
 69
     0
  0
VISUALSTYLE
  5
2F
102
{ACAD_REACTORS
330
2A
102
}
102
{ACAD_XDICTIONARY
360
F7
102
}
330
2A
100
AcDbVisualStyle
  2
2dWireframe
 70
     4
 71
     0
 72
     2
 73
     0
 90
        0
 40
0.6
 41
30.0
 62
     5
 63
     7
421
 16777215
 74
     1
 91
        4
 64
     7
 65
   257
 75
     1
175
     1
 42
1.0
 92
        0
 66
   257
 43
1.0
 76
     1
 77
     6
 78
     2
 67
     7
 79
     5
170
     0
171
     0
290
     0
174
     0
 93
        1
 44
0.0
173
     0
291
     0
 45
0.0
1001
ACAD
1000
AcDbSavedByObjectVersion
1070
     0
  0
VISUALSTYLE
  5
32
102
{ACAD_REACTORS
330
2A
102
}
102
{ACAD_XDICTIONARY
360
FD
102
}
330
2A
100
AcDbVisualStyle
  2
Basic
 70
     7
 71
     1
 72
     0
 73
     1
 90
        0
 40
0.6
 41
30.0
 62
     5
 63
     7
421
 16777215
 74
     0
 91
        4
 64
     7
 65
   257
 75
     1
175
     1
 42
1.0
 92
        8
 66
     7
 43
1.0
 76
     1
 77
     6
 78
     2
 67
     7
 79
     5
170
     0
171
     0
290
     0
174
     0
 93
        1
 44
0.0
173
     0
291
     1
 45
0.0
1001
ACAD
1000
AcDbSavedByObjectVersion
1070
     0
  0
VISUALSTYLE
  5
36
102
{ACAD_REACTORS
330
2A
102
}
102
{ACAD_XDICTIONARY
360
105
102
}
330
2A
100
AcDbVisualStyle
  2
Brighten
 70
    12
 71
     2
 72
     2
 73
     0
 90
        0
 40
0.6
 41
30.0
 62
     5
 63
     7
421
 16777215
 74
     1
 91
        4
 64
     7
 65
   257
 75
     1
175
     1
 42
1.0
 92
        8
 66
     7
 43
1.0
 76
     1
 77
     6
 78
     2
 67
     7
 79
     5
170
     0
171
     0
290
     0
174
     0
 93
        1
 44
50.0
173
     0
291
     1
 45
0.0
1001
ACAD
1000
AcDbSavedByObjectVersion
1070
     0
  0
VISUALSTYLE
  5
3A
102
{ACAD_REACTORS
330
2A
102
}
102
{ACAD_XDICTIONARY
360
10D
102
}
330
2A
100
AcDbVisualStyle
  2
ColorChange
 70
    16
 71
     2
 72
     2
 73
     3
 90
        0
 40
0.6
 41
30.0
 62
     5
 63
     8
421
  8421504
 74
     1
 91
        4
 64
     7
 65
   257
 75
     1
175
     1
 42
1.0
 92
        8
 66
     8
424
  8421504
 43
1.0
 76
     1
 77
     6
 78
     2
 67
     7
 79
     5
170
     0
171
     0
290
     0
174
     0
 93
        1
 44
0.0
173
     0
291
     1
 45
0.0
1001
ACAD
1000
AcDbSavedByObjectVersion
1070
     0
  0
VISUALSTYLE
  5
34
102
{ACAD_REACTORS
330
2A
102
}
102
{ACAD_XDICTIONARY
360
101
102
}
330
2A
100
AcDbVisualStyle
  2
Conceptual
 70
     9
 71
     3
 72
     2
 73
     0
 90
        0
 40
0.6
 41
30.0
 62
     5
 63
     7
421
 16777215
 74
     2
 91
        2
 64
     7
 65
   257
 75
     1
175
     1
 42
179.0
 92
        8
 66
     7
 43
1.0
 76
     1
 77
     6
 78
     2
 67
     7
 79
     3
170
     0
171
     0
290
     0
174
     0
 93
        1
 44
0.0
173
     0
291
     0
 45
0.0
1001
ACAD
1000
AcDbSavedByObjectVersion
1070
     0
  0
VISUALSTYLE
  5
35
102
{ACAD_REACTORS
330
2A
102
}
102
{ACAD_XDICTIONARY
360
103
102
}
330
2A
100
AcDbVisualStyle
  2
Dim
 70
    11
 71
     2
 72
     2
 73
     0
 90
        0
 40
0.6
 41
30.0
 62
     5
 63
     7
421
 16777215
 74
     1
 91
        4
 64
     7
 65
   257
 75
     1
175
     1
 42
1.0
 92
        8
 66
     7
 43
1.0
 76
     1
 77
     6
 78
     2
 67
     7
 79
     5
170
     0
171
     0
290
     0
174
     0
 93
        1
 44
-50.0
173
     0
291
     1
 45
0.0
1001
ACAD
1000
AcDbSavedByObjectVersion
1070
     0
  0
VISUALSTYLE
  5
3D
102
{ACAD_REACTORS
330
2A
102
}
102
{ACAD_XDICTIONARY
360
113
102
}
330
2A
100
AcDbVisualStyle
  2
EdgeColorOff
 70
    22
 71
     2
 72
     2
 73
     0
 90
        0
 40
0.6
 41
30.0
 62
     5
 63
     7
421
 16777215
 74
     1
 91
        4
 64
     7
 65
   257
 75
     1
175
     1
 42
1.0
 92
        8
 66
     7
 43
1.0
 76
     1
 77
     6
 78
     2
 67
     7
 79
     5
170
     0
171
     0
290
     0
174
     0
 93
        1
 44
0.0
173
     0
291
     1
 45
0.0
1001
ACAD
1000
AcDbSavedByObjectVersion
1070
     0
  0
VISUALSTYLE
  5
39
102
{ACAD_REACTORS
330
2A
102
}
102
{ACAD_XDICTIONARY
360
10B
102
}
330
2A
100
AcDbVisualStyle
  2
Facepattern
 70
    15
 71
     2
 72
     2
 73
     0
 90
        0
 40
0.6
 41
30.0
 62
     5
 63
     7
421
 16777215
 74
     1
 91
        4
 64
     7
 65
   257
 75
     1
175
     1
 42
1.0
 92
        8
 66
     7
 43
1.0
 76
     1
 77
     6
 78
     2
 67
     7
 79
     5
170
     0
171
     0
290
     0
174
     0
 93
        1
 44
0.0
173
     0
291
     1
 45
0.0
1001
ACAD
1000
AcDbSavedByObjectVersion
1070
     0
  0
VISUALSTYLE
  5
2B
102
{ACAD_REACTORS
330
2A
102
}
102
{ACAD_XDICTIONARY
360
EF
102
}
330
2A
100
AcDbVisualStyle
  2
Flat
 70
     0
 71
     2
 72
     1
 73
     1
 90
        2
 40
0.6
 41
30.0
 62
     5
 63
     7
421
 16777215
 74
     0
 91
        0
 64
     7
 65
   257
 75
     1
175
     1
 42
1.0
 92
        8
 66
     7
 43
1.0
 76
     1
 77
     6
 78
     2
 67
     7
 79
     5
170
     0
171
     0
290
     0
174
     0
 93
       13
 44
0.0
173
     0
291
     1
 45
0.0
1001
ACAD
1000
AcDbSavedByObjectVersion
1070
     0
  0
VISUALSTYLE
  5
2C
102
{ACAD_REACTORS
330
2A
102
}
102
{ACAD_XDICTIONARY
360
F1
102
}
330
2A
100
AcDbVisualStyle
  2
FlatWithEdges
 70
     1
 71
     2
 72
     1
 73
     1
 90
        2
 40
0.6
 41
30.0
 62
     5
 63
     7
421
 16777215
 74
     1
 91
        0
 64
     7
 65
   257
 75
     1
175
     1
 42
1.0
 92
        0
 66
   257
 43
1.0
 76
     1
 77
     6
 78
     2
 67
     7
 79
     5
170
     0
171
     0
290
     0
174
     0
 93
       13
 44
0.0
173
     0
291
     1
 45
0.0
1001
ACAD
1000
AcDbSavedByObjectVersion
1070
     0
  0
VISUALSTYLE
  5
2D
102
{ACAD_REACTORS
330
2A
102
}
102
{ACAD_XDICTIONARY
360
F3
102
}
330
2A
100
AcDbVisualStyle
  2
Gouraud
 70
     2
 71
     2
 72
     2
 73
     1
 90
        2
 40
0.6
 41
30.0
 62
     5
 63
     7
421
 16777215
 74
     0
 91
        0
 64
     7
 65
   257
 75
     1
175
     1
 42
1.0
 92
        0
 66
     7
 43
1.0
 76
     1
 77
     6
 78
     2
 67
     7
 79
     5
170
     0
171
     0
290
     0
174
     0
 93
       13
 44
0.0
173
     0
291
     1
 45
0.0
1001
ACAD
1000
AcDbSavedByObjectVersion
1070
     0
  0
VISUALSTYLE
  5
2E
102
{ACAD_REACTORS
330
2A
102
}
102
{ACAD_XDICTIONARY
360
F5
102
}
330
2A
100
AcDbVisualStyle
  2
GouraudWithEdges
 70
     3
 71
     2
 72
     2
 73
     1
 90
        2
 40
0.6
 41
30.0
 62
     5
 63
     7
421
 16777215
 74
     1
 91
        0
 64
     7
 65
   257
 75
     1
175
     1
 42
1.0
 92
        0
 66
   257
 43
1.0
 76
     1
 77
     6
 78
     2
 67
     7
 79
     5
170
     0
171
     0
290
     0
174
     0
 93
       13
 44
0.0
173
     0
291
     1
 45
0.0
1001
ACAD
1000
AcDbSavedByObjectVersion
1070
     0
  0
VISUALSTYLE
  5
31
102
{ACAD_REACTORS
330
2A
102
}
102
{ACAD_XDICTIONARY
360
FB
102
}
330
2A
100
AcDbVisualStyle
  2
Hidden
 70
     6
 71
     1
 72
     2
 73
     2
 90
        0
 40
0.6
 41
30.0
 62
     5
 63
     7
421
 16777215
 74
     2
 91
        2
 64
     7
 65
   257
 75
     2
175
     1
 42
40.0
 92
        0
 66
   257
 43
1.0
 76
     1
 77
     6
 78
     2
 67
     7
 79
     3
170
     0
171
     0
290
     0
174
     0
 93
        1
 44
0.0
173
     0
291
     0
 45
0.0
1001
ACAD
1000
AcDbSavedByObjectVersion
1070
     0
  0
VISUALSTYLE
  5
3B
102
{ACAD_REACTORS
330
2A
102
}
102
{ACAD_XDICTIONARY
360
10F
102
}
330
2A
100
AcDbVisualStyle
  2
JitterOff
 70
    20
 71
     2
 72
     2
 73
     0
 90
        0
 40
0.6
 41
30.0
 62
     5
 63
     7
421
 16777215
 74
     1
 91
        4
 64
     7
 65
   257
 75
     1
175
     1
 42
1.0
 92
       10
 66
     7
 43
1.0
 76
     1
 77
     6
 78
     2
 67
     7
 79
     5
170
     0
171
     0
290
     0
174
     0
 93
        1
 44
0.0
173
     0
291
     1
 45
0.0
1001
ACAD
1000
AcDbSavedByObjectVersion
1070
     0
  0
VISUALSTYLE
  5
38
102
{ACAD_REACTORS
330
2A
102
}
102
{ACAD_XDICTIONARY
360
109
102
}
330
2A
100
AcDbVisualStyle
  2
Linepattern
 70
    14
 71
     2
 72
     2
 73
     0
 90
        0
 40
0.6
 41
30.0
 62
     5
 63
     7
421
 16777215
 74
     1
 91
        4
 64
     7
 65
   257
 75
     7
175
     7
 42
1.0
 92
        8
 66
     7
 43
1.0
 76
     1
 77
     6
 78
     2
 67
     7
 79
     5
170
     0
171
     0
290
     0
174
     0
 93
        1
 44
0.0
173
     0
291
     1
 45
0.0
1001
ACAD
1000
AcDbSavedByObjectVersion
1070
     0
  0
VISUALSTYLE
  5
3C
102
{ACAD_REACTORS
330
2A
102
}
102
{ACAD_XDICTIONARY
360
111
102
}
330
2A
100
AcDbVisualStyle
  2
OverhangOff
 70
    21
 71
     2
 72
     2
 73
     0
 90
        0
 40
0.6
 41
30.0
 62
     5
 63
     7
421
 16777215
 74
     1
 91
        4
 64
     7
 65
   257
 75
     1
175
     1
 42
1.0
 92
        9
 66
     7
 43
1.0
 76
     1
 77
     6
 78
     2
 67
     7
 79
     5
170
     0
171
     0
290
     0
174
     0
 93
        1
 44
0.0
173
     0
291
     1
 45
0.0
1001
ACAD
1000
AcDbSavedByObjectVersion
1070
     0
  0
VISUALSTYLE
  5
33
102
{ACAD_REACTORS
330
2A
102
}
102
{ACAD_XDICTIONARY
360
FF
102
}
330
2A
100
AcDbVisualStyle
  2
Realistic
 70
     8
 71
     2
 72
     3
 73
     0
 90
        2
 40
0.6
 41
30.0
 62
     5
 63
     7
421
 16777215
 74
     0
 91
        0
 64
     7
 65
   257
 75
     1
175
     1
 42
1.0
 92
        8
 66
   257
 43
1.0
 76
     1
 77
     6
 78
     2
 67
     7
 79
     3
170
     0
171
     0
290
     0
174
     0
 93
       13
 44
0.0
173
     0
291
     0
 45
0.0
1001
ACAD
1000
AcDbSavedByObjectVersion
1070
     0
  0
VISUALSTYLE
  5
42
102
{ACAD_REACTORS
330
2A
102
}
102
{ACAD_XDICTIONARY
360
11D
102
}
330
2A
100
AcDbVisualStyle
  2
Shaded
 70
    27
 71
     2
 72
     2
 73
     1
 90
        2
 40
0.6
 41
30.0
 62
     5
 63
     7
421
 16777215
 74
     0
 91
        4
 64
     7
 65
   257
 75
     1
175
     1
 42
1.0
 92
        8
 66
   257
 43
1.0
 76
     1
 77
     6
 78
     2
 67
     8
425
  7895160
 79
     3
170
     0
171
     0
290
     0
174
     0
 93
        5
 44
0.0
173
     0
291
     0
 45
0.0
1001
ACAD
1000
AcDbSavedByObjectVersion
1070
     0
  0
VISUALSTYLE
  5
41
102
{ACAD_REACTORS
330
2A
102
}
102
{ACAD_XDICTIONARY
360
11B
102
}
330
2A
100
AcDbVisualStyle
  2
Shaded with edges
 70
    26
 71
     2
 72
     2
 73
     1
 90
        2
 40
0.6
 41
30.0
 62
     5
 63
     7
421
 16777215
 74
     1
 91
       10
 64
     7
 65
   257
 75
     2
175
     1
 42
1.0
 92
        8
 66
   257
 43
1.0
 76
     1
 77
     6
 78
     2
 67
     7
 79
     3
170
     0
171
     0
290
     0
174
     0
 93
        5
 44
0.0
173
     0
291
     0
 45
0.0
1001
ACAD
1000
AcDbSavedByObjectVersion
1070
     0
  0
VISUALSTYLE
  5
3E
102
{ACAD_REACTORS
330
2A
102
}
102
{ACAD_XDICTIONARY
360
115
102
}
330
2A
100
AcDbVisualStyle
  2
Shades of Gray
 70
    23
 71
     2
 72
     2
 73
     3
 90
        0
 40
0.6
 41
30.0
 62
     5
 63
     7
421
 16777215
 74
     2
 91
        2
 64
     7
 65
     7
 75
     1
175
     1
 42
40.0
 92
        8
 66
     7
 43
1.0
 76
     1
 77
     6
 78
     2
 67
     7
 79
     3
170
     0
171
     0
290
     0
174
     0
 93
        1
 44
0.0
173
     0
291
     0
 45
0.0
1001
ACAD
1000
AcDbSavedByObjectVersion
1070
     0
  0
VISUALSTYLE
  5
3F
102
{ACAD_REACTORS
330
2A
102
}
102
{ACAD_XDICTIONARY
360
117
102
}
330
2A
100
AcDbVisualStyle
  2
Sketchy
 70
    24
 71
     1
 72
     2
 73
     2
 90
        0
 40
0.6
 41
30.0
 62
     5
 63
     7
421
 16777215
 74
     2
 91
        2
 64
     7
 65
     7
 75
     1
175
     1
 42
40.0
 92
       11
 66
     7
 43
1.0
 76
     1
 77
     6
 78
     2
 67
     7
 79
     6
170
     0
171
     0
290
     0
174
     0
 93
        1
 44
0.0
173
     0
291
     0
 45
0.0
1001
ACAD
1000
AcDbSavedByObjectVersion
1070
     0
  0
VISUALSTYLE
  5
37
102
{ACAD_REACTORS
330
2A
102
}
102
{ACAD_XDICTIONARY
360
107
102
}
330
2A
100
AcDbVisualStyle
  2
Thicken
 70
    13
 71
     2
 72
     2
 73
     0
 90
        0
 40
0.6
 41
30.0
 62
     5
 63
     7
421
 16777215
 74
     1
 91
        4
 64
     7
 65
   257
 75
     1
175
     1
 42
1.0
 92
       12
 66
     7
 43
1.0
 76
     1
 77
     6
 78
     2
 67
     7
 79
     5
170
     0
171
     0
290
     0
174
     0
 93
        1
 44
0.0
173
     0
291
     1
 45
0.0
1001
ACAD
1000
AcDbSavedByObjectVersion
1070
     0
  0
VISUALSTYLE
  5
30
102
{ACAD_REACTORS
330
2A
102
}
102
{ACAD_XDICTIONARY
360
F9
102
}
330
2A
100
AcDbVisualStyle
  2
Wireframe
 70
     5
 71
     0
 72
     2
 73
     0
 90
        0
 40
0.6
 41
30.0
 62
     5
 63
     7
421
 16777215
 74
     1
 91
        4
 64
     7
 65
   257
 75
     1
175
     1
 42
1.0
 92
        0
 66
   257
 43
1.0
 76
     1
 77
     6
 78
     2
 67
     7
 79
     3
170
     0
171
     0
290
     0
174
     0
 93
        1
 44
0.0
173
     0
291
     0
 45
0.0
1001
ACAD
1000
AcDbSavedByObjectVersion
1070
     0
  0
VISUALSTYLE
  5
40
102
{ACAD_REACTORS
330
2A
102
}
102
{ACAD_XDICTIONARY
360
119
102
}
330
2A
100
AcDbVisualStyle
  2
X-Ray
 70
    25
 71
     2
 72
     2
 73
     1
 90
        1
 40
0.5
 41
30.0
 62
     5
 63
     7
421
 16777215
 74
     1
 91
        0
 64
     7
 65
   257
 75
     1
175
     1
 42
1.0
 92
        8
 66
     7
 43
1.0
 76
     1
 77
     6
 78
     2
 67
     7
 79
     3
170
     0
171
     0
290
     0
174
     0
 93
       13
 44
0.0
173
     0
291
     0
 45
0.0
1001
ACAD
1000
AcDbSavedByObjectVersion
1070
     0
  0
DICTIONARYVAR
  5
EC
102
{ACAD_REACTORS
330
EB
102
}
330
EB
100
DictionaryVariables
280
     0
  1
1:1
  0
DICTIONARYVAR
  5
12D
102
{ACAD_REACTORS
330
EB
102
}
330
EB
100
DictionaryVariables
280
     0
  1
Standard
  0
DICTIONARYVAR
  5
12C
102
{ACAD_REACTORS
330
EB
102
}
330
EB
100
DictionaryVariables
280
     0
  1
Standard
  0
DICTIONARYVAR
  5
ED
102
{ACAD_REACTORS
330
EB
102
}
330
EB
100
DictionaryVariables
280
     0
  1
1
  0
DICTIONARYVAR
  5
EE
102
{ACAD_REACTORS
330
EB
102
}
330
EB
100
DictionaryVariables
280
     0
  1
2
  0
DICTIONARY
  5
121
330
45
100
AcDbDictionary
280
     1
281
     1
  3
ACAD_XREC_ROUNDTRIP
360
122
  0
DICTIONARY
  5
11F
330
44
100
AcDbDictionary
280
     1
281
     1
  3
ACAD_XREC_ROUNDTRIP
360
120
  0
DICTIONARY
  5
123
330
46
100
AcDbDictionary
280
     1
281
     1
  3
ACAD_XREC_ROUNDTRIP
360
124
  0
DICTIONARY
  5
129
330
6C
100
AcDbDictionary
280
     1
281
     1
  3
ACAD_XREC_ROUNDTRIP
360
12A
  0
DICTIONARY
  5
125
330
6A
100
AcDbDictionary
280
     1
281
     1
  3
ACAD_ROUNDTRIP_2008_TABLESTYLE_CELLSTYLEMAP
360
127
  3
ACAD_XREC_ROUNDTRIP
360
126
  0
DICTIONARY
  5
F7
330
2F
100
AcDbDictionary
280
     1
281
     1
  3
ACAD_XREC_ROUNDTRIP
360
F8
  0
DICTIONARY
  5
FD
330
32
100
AcDbDictionary
280
     1
281
     1
  3
ACAD_XREC_ROUNDTRIP
360
FE
  0
DICTIONARY
  5
105
330
36
100
AcDbDictionary
280
     1
281
     1
  3
ACAD_XREC_ROUNDTRIP
360
106
  0
DICTIONARY
  5
10D
330
3A
100
AcDbDictionary
280
     1
281
     1
  3
ACAD_XREC_ROUNDTRIP
360
10E
  0
DICTIONARY
  5
101
330
34
100
AcDbDictionary
280
     1
281
     1
  3
ACAD_XREC_ROUNDTRIP
360
102
  0
DICTIONARY
  5
103
330
35
100
AcDbDictionary
280
     1
281
     1
  3
ACAD_XREC_ROUNDTRIP
360
104
  0
DICTIONARY
  5
113
330
3D
100
AcDbDictionary
280
     1
281
     1
  3
ACAD_XREC_ROUNDTRIP
360
114
  0
DICTIONARY
  5
10B
330
39
100
AcDbDictionary
280
     1
281
     1
  3
ACAD_XREC_ROUNDTRIP
360
10C
  0
DICTIONARY
  5
EF
330
2B
100
AcDbDictionary
280
     1
281
     1
  3
ACAD_XREC_ROUNDTRIP
360
F0
  0
DICTIONARY
  5
F1
330
2C
100
AcDbDictionary
280
     1
281
     1
  3
ACAD_XREC_ROUNDTRIP
360
F2
  0
DICTIONARY
  5
F3
330
2D
100
AcDbDictionary
280
     1
281
     1
  3
ACAD_XREC_ROUNDTRIP
360
F4
  0
DICTIONARY
  5
F5
330
2E
100
AcDbDictionary
280
     1
281
     1
  3
ACAD_XREC_ROUNDTRIP
360
F6
  0
DICTIONARY
  5
FB
330
31
100
AcDbDictionary
280
     1
281
     1
  3
ACAD_XREC_ROUNDTRIP
360
FC
  0
DICTIONARY
  5
10F
330
3B
100
AcDbDictionary
280
     1
281
     1
  3
ACAD_XREC_ROUNDTRIP
360
110
  0
DICTIONARY
  5
109
330
38
100
AcDbDictionary
280
     1
281
     1
  3
ACAD_XREC_ROUNDTRIP
360
10A
  0
DICTIONARY
  5
111
330
3C
100
AcDbDictionary
280
     1
281
     1
  3
ACAD_XREC_ROUNDTRIP
360
112
  0
DICTIONARY
  5
FF
330
33
100
AcDbDictionary
280
     1
281
     1
  3
ACAD_XREC_ROUNDTRIP
360
100
  0
DICTIONARY
  5
11D
330
42
100
AcDbDictionary
280
     1
281
     1
  3
ACAD_XREC_ROUNDTRIP
360
11E
  0
DICTIONARY
  5
11B
330
41
100
AcDbDictionary
280
     1
281
     1
  3
ACAD_XREC_ROUNDTRIP
360
11C
  0
DICTIONARY
  5
115
330
3E
100
AcDbDictionary
280
     1
281
     1
  3
ACAD_XREC_ROUNDTRIP
360
116
  0
DICTIONARY
  5
117
330
3F
100
AcDbDictionary
280
     1
281
     1
  3
ACAD_XREC_ROUNDTRIP
360
118
  0
DICTIONARY
  5
107
330
37
100
AcDbDictionary
280
     1
281
     1
  3
ACAD_XREC_ROUNDTRIP
360
108
  0
DICTIONARY
  5
F9
330
30
100
AcDbDictionary
280
     1
281
     1
  3
ACAD_XREC_ROUNDTRIP
360
FA
  0
DICTIONARY
  5
119
330
40
100
AcDbDictionary
280
     1
281
     1
  3
ACAD_XREC_ROUNDTRIP
360
11A
  0
XRECORD
  5
122
102
{ACAD_REACTORS
330
121
102
}
330
121
100
AcDbXrecord
280
     1
102
MATERIAL
148
0.0
149
0.0
149
0.0
 93
        0
 94
      127
282
     0
 72
     1
 77
     1
171
     1
175
     1
179
     1
273
     0
  0
XRECORD
  5
120
102
{ACAD_REACTORS
330
11F
102
}
330
11F
100
AcDbXrecord
280
     1
102
MATERIAL
148
0.0
149
0.0
149
0.0
 93
        0
 94
      127
282
     0
 72
     1
 77
     1
171
     1
175
     1
179
     1
273
     0
  0
XRECORD
  5
124
102
{ACAD_REACTORS
330
123
102
}
330
123
100
AcDbXrecord
280
     1
102
MATERIAL
148
0.0
149
0.0
149
0.0
 93
        0
 94
      127
282
     0
 72
     1
 77
     1
171
     1
175
     1
179
     1
273
     0
  0
XRECORD
  5
12A
102
{ACAD_REACTORS
330
129
102
}
330
129
100
AcDbXrecord
280
     1
102
ACAD_ROUNDTRIP_2010_MLEADER_STYLE
  0
CELLSTYLEMAP
  5
127
102
{ACAD_REACTORS
330
125
102
}
330
125
100
AcDbCellStyleMap
 90
        3
300
CELLSTYLE
  1
TABLEFORMAT_BEGIN
 90
        5
170
     1
 91
        0
 92
    32768
 62
   257
 93
        1
300
CONTENTFORMAT
  1
CONTENTFORMAT_BEGIN
 90
        0
 91
        0
 92
        4
 93
        0
300

 40
0.0
140
1.0
 94
        5
 62
     0
340
11
144
0.25
309
CONTENTFORMAT_END
171
     1
301
MARGIN
  1
CELLMARGIN_BEGIN
 40
0.06
 40
0.06
 40
0.06
 40
0.06
 40
0.06
 40
0.06
309
CELLMARGIN_END
 94
        6
 95
        1
302
GRIDFORMAT
  1
GRIDFORMAT_BEGIN
 90
        0
 91
        1
 62
     0
 92
       -2
340
14
 93
        0
 40
0.045
309
GRIDFORMAT_END
 95
        2
302
GRIDFORMAT
  1
GRIDFORMAT_BEGIN
 90
        0
 91
        1
 62
     0
 92
       -2
340
14
 93
        0
 40
0.045
309
GRIDFORMAT_END
 95
        4
302
GRIDFORMAT
  1
GRIDFORMAT_BEGIN
 90
        0
 91
        1
 62
     0
 92
       -2
340
14
 93
        0
 40
0.045
309
GRIDFORMAT_END
 95
        8
302
GRIDFORMAT
  1
GRIDFORMAT_BEGIN
 90
        0
 91
        1
 62
     0
 92
       -2
340
14
 93
        0
 40
0.045
309
GRIDFORMAT_END
 95
       16
302
GRIDFORMAT
  1
GRIDFORMAT_BEGIN
 90
        0
 91
        1
 62
     0
 92
       -2
340
14
 93
        0
 40
0.045
309
GRIDFORMAT_END
 95
       32
302
GRIDFORMAT
  1
GRIDFORMAT_BEGIN
 90
        0
 91
        1
 62
     0
 92
       -2
340
14
 93
        0
 40
0.045
309
GRIDFORMAT_END
309
TABLEFORMAT_END
  1
CELLSTYLE_BEGIN
 90
        1
 91
        1
300
_TITLE
309
CELLSTYLE_END
300
CELLSTYLE
  1
TABLEFORMAT_BEGIN
 90
        5
170
     1
 91
        0
 92
        0
 62
   257
 93
        1
300
CONTENTFORMAT
  1
CONTENTFORMAT_BEGIN
 90
        0
 91
        0
 92
        4
 93
        0
300

 40
0.0
140
1.0
 94
        5
 62
     0
340
11
144
0.18
309
CONTENTFORMAT_END
171
     1
301
MARGIN
  1
CELLMARGIN_BEGIN
 40
0.06
 40
0.06
 40
0.06
 40
0.06
 40
0.06
 40
0.06
309
CELLMARGIN_END
 94
        6
 95
        1
302
GRIDFORMAT
  1
GRIDFORMAT_BEGIN
 90
        0
 91
        1
 62
     0
 92
       -2
340
14
 93
        0
 40
0.045
309
GRIDFORMAT_END
 95
        2
302
GRIDFORMAT
  1
GRIDFORMAT_BEGIN
 90
        0
 91
        1
 62
     0
 92
       -2
340
14
 93
        0
 40
0.045
309
GRIDFORMAT_END
 95
        4
302
GRIDFORMAT
  1
GRIDFORMAT_BEGIN
 90
        0
 91
        1
 62
     0
 92
       -2
340
14
 93
        0
 40
0.045
309
GRIDFORMAT_END
 95
        8
302
GRIDFORMAT
  1
GRIDFORMAT_BEGIN
 90
        0
 91
        1
 62
     0
 92
       -2
340
14
 93
        0
 40
0.045
309
GRIDFORMAT_END
 95
       16
302
GRIDFORMAT
  1
GRIDFORMAT_BEGIN
 90
        0
 91
        1
 62
     0
 92
       -2
340
14
 93
        0
 40
0.045
309
GRIDFORMAT_END
 95
       32
302
GRIDFORMAT
  1
GRIDFORMAT_BEGIN
 90
        0
 91
        1
 62
     0
 92
       -2
340
14
 93
        0
 40
0.045
309
GRIDFORMAT_END
309
TABLEFORMAT_END
  1
CELLSTYLE_BEGIN
 90
        2
 91
        1
300
_HEADER
309
CELLSTYLE_END
300
CELLSTYLE
  1
TABLEFORMAT_BEGIN
 90
        5
170
     1
 91
        0
 92
        0
 62
   257
 93
        1
300
CONTENTFORMAT
  1
CONTENTFORMAT_BEGIN
 90
        0
 91
        0
 92
        4
 93
        0
300

 40
0.0
140
1.0
 94
        2
 62
     0
340
11
144
0.18
309
CONTENTFORMAT_END
171
     1
301
MARGIN
  1
CELLMARGIN_BEGIN
 40
0.06
 40
0.06
 40
0.06
 40
0.06
 40
0.06
 40
0.06
309
CELLMARGIN_END
 94
        6
 95
        1
302
GRIDFORMAT
  1
GRIDFORMAT_BEGIN
 90
        0
 91
        1
 62
     0
 92
       -2
340
14
 93
        0
 40
0.045
309
GRIDFORMAT_END
 95
        2
302
GRIDFORMAT
  1
GRIDFORMAT_BEGIN
 90
        0
 91
        1
 62
     0
 92
       -2
340
14
 93
        0
 40
0.045
309
GRIDFORMAT_END
 95
        4
302
GRIDFORMAT
  1
GRIDFORMAT_BEGIN
 90
        0
 91
        1
 62
     0
 92
       -2
340
14
 93
        0
 40
0.045
309
GRIDFORMAT_END
 95
        8
302
GRIDFORMAT
  1
GRIDFORMAT_BEGIN
 90
        0
 91
        1
 62
     0
 92
       -2
340
14
 93
        0
 40
0.045
309
GRIDFORMAT_END
 95
       16
302
GRIDFORMAT
  1
GRIDFORMAT_BEGIN
 90
        0
 91
        1
 62
     0
 92
       -2
340
14
 93
        0
 40
0.045
309
GRIDFORMAT_END
 95
       32
302
GRIDFORMAT
  1
GRIDFORMAT_BEGIN
 90
        0
 91
        1
 62
     0
 92
       -2
340
14
 93
        0
 40
0.045
309
GRIDFORMAT_END
309
TABLEFORMAT_END
  1
CELLSTYLE_BEGIN
 90
        3
 91
        2
300
_DATA
309
CELLSTYLE_END
  0
XRECORD
  5
126
102
{ACAD_REACTORS
330
125
102
}
330
125
100
AcDbXrecord
280
     1
102
ACAD_ROUNDTRIP_PRE2007_TABLESTYLE
 90
        4
 91
        0
  1

 92
        4
 93
        0
  2

 94
        4
 95
        0
  3

  0
XRECORD
  5
F8
102
{ACAD_REACTORS
330
F7
102
}
330
F7
100
AcDbXrecord
280
     1
102
RTVSPropertyOp0
 70
     1
102
RTVSPropertyOp1
 70
     1
102
RTVSPropertyOp2
 70
     1
102
RTVSPropertyOp3
 70
     1
102
RTVSPropertyOp4
 70
     1
102
RTVSPropertyOp5
 70
     1
102
RTVSPropertyOp6
 70
     1
102
RTVSPropertyOp7
 70
     1
102
RTVSPropertyOp8
 70
     1
102
RTVSPropertyOp9
 70
     1
102
RTVSPropertyOp10
 70
     1
102
RTVSPropertyOp11
 70
     1
102
RTVSPropertyOp12
 70
     1
102
RTVSPropertyOp13
 70
     1
102
RTVSPropertyOp14
 70
     1
102
RTVSPropertyOp15
 70
     1
102
RTVSPropertyOp16
 70
     1
102
RTVSPropertyOp17
 70
     1
102
RTVSPropertyOp18
 70
     1
102
RTVSPropertyOp19
 70
     1
102
RTVSPropertyOp20
 70
     1
102
RTVSPropertyOp21
 70
     1
102
RTVSPropertyOp22
 70
     1
102
RTVSPropertyOp23
 70
     1
102
RTVSPropertyOp24
 70
     1
102
RTVSPropertyOp25
 70
     1
102
RTVSPropertyOp26
 70
     1
102
RTVSPropertyOp27
 70
     1
102
RTVSPropertyOp28
 70
     1
102
RTVSPropertyOp29
 70
     1
102
RTVSPropertyOp30
 70
     1
102
RTVSPropertyOp31
 70
     1
102
RTVSPropertyOp32
 70
     1
102
RTVSPropertyOp33
 70
     1
102
RTVSPropertyOp34
 70
     1
102
RTVSPropertyOp35
 70
     1
102
RTVSPropertyOp36
 70
     1
102
RTVSPropertyOp37
 70
     1
102
RTVSPropertyOp38
 70
     1
102
RTVSPropertyOp39
 70
     1
102
RTVSPropertyOp40
 70
     1
102
RTVSPropertyOp41
 70
     1
102
RTVSPropertyOp42
 70
     1
102
RTVSPropertyOp43
 70
     1
102
RTVSPropertyOp44
 70
     1
102
RTVSPropertyOp45
 70
     1
102
RTVSPropertyOp46
 70
     1
102
RTVSPropertyOp47
 70
     1
102
RTVSPropertyOp48
 70
     1
102
RTVSPropertyOp49
 70
     1
102
RTVSPropertyOp50
 70
     1
102
RTVSPropertyOp51
 70
     0
102
RTVSPropertyOp52
 70
     0
102
RTVSPropertyOp53
 70
     1
102
RTVSPropertyOp54
 70
     1
102
RTVSPropertyOp55
 70
     1
102
RTVSPropertyOp56
 70
     1
102
RTVSPropertyOp57
 70
     1
102
RTVSPost2010Prop28
280
     1
102
RTVSPost2010PropOp28
 70
     1
102
RTVSPost2010Prop29
280
     1
102
RTVSPost2010PropOp29
 70
     1
102
RTVSPost2010Prop30
280
     0
102
RTVSPost2010PropOp30
 70
     1
102
RTVSPost2010Prop31
280
     0
102
RTVSPost2010PropOp31
 70
     1
102
RTVSPost2010Prop32
280
     0
102
RTVSPost2010PropOp32
 70
     1
102
RTVSPost2010Prop33
280
     0
102
RTVSPost2010PropOp33
 70
     1
102
RTVSPost2010Prop34
280
     0
102
RTVSPost2010PropOp34
 70
     1
102
RTVSPost2010Prop35
280
     0
102
RTVSPost2010PropOp35
 70
     1
102
RTVSPost2010Prop36
280
     0
102
RTVSPost2010PropOp36
 70
     1
102
RTVSPost2010Prop37
 90
       50
102
RTVSPost2010PropOp37
 70
     1
102
RTVSPost2010Prop38
140
0.0
102
RTVSPost2010PropOp38
 70
     1
102
RTVSPost2010Prop39
140
1.0
102
RTVSPost2010PropOp39
 70
     1
102
RTVSPost2010Prop40
 90
        0
102
RTVSPost2010PropOp40
 70
     1
102
RTVSPost2010Prop41ColorIndex
 90
       18
102
RTVSPost2010Prop41ColorRGB
 90
        0
102
RTVSPost2010PropOp41
 70
     1
102
RTVSPost2010Prop42
 90
       50
102
RTVSPost2010PropOp42
 70
     1
102
RTVSPost2010Prop43
 90
        3
102
RTVSPost2010PropOp43
 70
     1
102
RTVSPost2010Prop44ColorIndex
 90
        5
102
RTVSPost2010Prop44ColorRGB
 90
      255
102
RTVSPost2010PropOp44
 70
     1
102
RTVSPost2010Prop45
280
     0
102
RTVSPost2010PropOp45
 70
     1
102
RTVSPost2010Prop46
 90
       50
102
RTVSPost2010PropOp46
 70
     1
102
RTVSPost2010Prop47
 90
       50
102
RTVSPost2010PropOp47
 70
     1
102
RTVSPost2010Prop48
 90
       50
102
RTVSPost2010PropOp48
 70
     1
102
RTVSPost2010Prop49
280
     0
102
RTVSPost2010PropOp49
 70
     1
102
RTVSPost2010Prop50
 90
       50
102
RTVSPost2010PropOp50
 70
     1
102
RTVSPost2010Prop51ColorIndex
 90
      256
102
RTVSPost2010Prop51ColorRGB
 90
-16777216
102
RTVSPost2010PropOp51
 70
     0
102
RTVSPost2010Prop52
140
1.0
102
RTVSPost2010PropOp52
 70
     0
102
RTVSPost2010Prop53
 90
        2
102
RTVSPost2010PropOp53
 70
     1
102
RTVSPost2010Prop54
  1
strokes_ogs.tif
102
RTVSPost2010PropOp54
 70
     1
102
RTVSPost2010Prop55
280
     0
102
RTVSPost2010PropOp55
 70
     1
102
RTVSPost2010Prop56
140
1.0
102
RTVSPost2010PropOp56
 70
     1
102
RTVSPost2010Prop57
140
1.0
102
RTVSPost2010PropOp57
 70
     1
  0
XRECORD
  5
FE
102
{ACAD_REACTORS
330
FD
102
}
330
FD
100
AcDbXrecord
280
     1
102
RTVSPropertyOp0
 70
     1
102
RTVSPropertyOp1
 70
     1
102
RTVSPropertyOp2
 70
     1
102
RTVSPropertyOp3
 70
     1
102
RTVSPropertyOp4
 70
     1
102
RTVSPropertyOp5
 70
     1
102
RTVSPropertyOp6
 70
     1
102
RTVSPropertyOp7
 70
     1
102
RTVSPropertyOp8
 70
     1
102
RTVSPropertyOp9
 70
     1
102
RTVSPropertyOp10
 70
     1
102
RTVSPropertyOp11
 70
     1
102
RTVSPropertyOp12
 70
     1
102
RTVSPropertyOp13
 70
     1
102
RTVSPropertyOp14
 70
     1
102
RTVSPropertyOp15
 70
     1
102
RTVSPropertyOp16
 70
     1
102
RTVSPropertyOp17
 70
     1
102
RTVSPropertyOp18
 70
     1
102
RTVSPropertyOp19
 70
     1
102
RTVSPropertyOp20
 70
     1
102
RTVSPropertyOp21
 70
     1
102
RTVSPropertyOp22
 70
     1
102
RTVSPropertyOp23
 70
     1
102
RTVSPropertyOp24
 70
     1
102
RTVSPropertyOp25
 70
     1
102
RTVSPropertyOp26
 70
     1
102
RTVSPropertyOp27
 70
     1
102
RTVSPropertyOp28
 70
     1
102
RTVSPropertyOp29
 70
     1
102
RTVSPropertyOp30
 70
     1
102
RTVSPropertyOp31
 70
     1
102
RTVSPropertyOp32
 70
     1
102
RTVSPropertyOp33
 70
     1
102
RTVSPropertyOp34
 70
     1
102
RTVSPropertyOp35
 70
     1
102
RTVSPropertyOp36
 70
     1
102
RTVSPropertyOp37
 70
     1
102
RTVSPropertyOp38
 70
     1
102
RTVSPropertyOp39
 70
     1
102
RTVSPropertyOp40
 70
     1
102
RTVSPropertyOp41
 70
     1
102
RTVSPropertyOp42
 70
     1
102
RTVSPropertyOp43
 70
     1
102
RTVSPropertyOp44
 70
     1
102
RTVSPropertyOp45
 70
     1
102
RTVSPropertyOp46
 70
     1
102
RTVSPropertyOp47
 70
     1
102
RTVSPropertyOp48
 70
     1
102
RTVSPropertyOp49
 70
     1
102
RTVSPropertyOp50
 70
     1
102
RTVSPropertyOp51
 70
     0
102
RTVSPropertyOp52
 70
     0
102
RTVSPropertyOp53
 70
     1
102
RTVSPropertyOp54
 70
     1
102
RTVSPropertyOp55
 70
     1
102
RTVSPropertyOp56
 70
     1
102
RTVSPropertyOp57
 70
     1
102
RTVSPost2010Prop28
280
     0
102
RTVSPost2010PropOp28
 70
     1
102
RTVSPost2010Prop29
280
     1
102
RTVSPost2010PropOp29
 70
     1
102
RTVSPost2010Prop30
280
     1
102
RTVSPost2010PropOp30
 70
     1
102
RTVSPost2010Prop31
280
     0
102
RTVSPost2010PropOp31
 70
     1
102
RTVSPost2010Prop32
280
     0
102
RTVSPost2010PropOp32
 70
     1
102
RTVSPost2010Prop33
280
     0
102
RTVSPost2010PropOp33
 70
     1
102
RTVSPost2010Prop34
280
     0
102
RTVSPost2010PropOp34
 70
     1
102
RTVSPost2010Prop35
280
     0
102
RTVSPost2010PropOp35
 70
     1
102
RTVSPost2010Prop36
280
     0
102
RTVSPost2010PropOp36
 70
     1
102
RTVSPost2010Prop37
 90
       50
102
RTVSPost2010PropOp37
 70
     1
102
RTVSPost2010Prop38
140
0.0
102
RTVSPost2010PropOp38
 70
     1
102
RTVSPost2010Prop39
140
1.0
102
RTVSPost2010PropOp39
 70
     1
102
RTVSPost2010Prop40
 90
        0
102
RTVSPost2010PropOp40
 70
     1
102
RTVSPost2010Prop41ColorIndex
 90
       18
102
RTVSPost2010Prop41ColorRGB
 90
        0
102
RTVSPost2010PropOp41
 70
     1
102
RTVSPost2010Prop42
 90
       50
102
RTVSPost2010PropOp42
 70
     1
102
RTVSPost2010Prop43
 90
        3
102
RTVSPost2010PropOp43
 70
     1
102
RTVSPost2010Prop44ColorIndex
 90
        5
102
RTVSPost2010Prop44ColorRGB
 90
      255
102
RTVSPost2010PropOp44
 70
     1
102
RTVSPost2010Prop45
280
     0
102
RTVSPost2010PropOp45
 70
     1
102
RTVSPost2010Prop46
 90
       50
102
RTVSPost2010PropOp46
 70
     1
102
RTVSPost2010Prop47
 90
       50
102
RTVSPost2010PropOp47
 70
     1
102
RTVSPost2010Prop48
 90
       50
102
RTVSPost2010PropOp48
 70
     1
102
RTVSPost2010Prop49
280
     0
102
RTVSPost2010PropOp49
 70
     1
102
RTVSPost2010Prop50
 90
       50
102
RTVSPost2010PropOp50
 70
     1
102
RTVSPost2010Prop51ColorIndex
 90
      256
102
RTVSPost2010Prop51ColorRGB
 90
-16777216
102
RTVSPost2010PropOp51
 70
     0
102
RTVSPost2010Prop52
140
1.0
102
RTVSPost2010PropOp52
 70
     0
102
RTVSPost2010Prop53
 90
        2
102
RTVSPost2010PropOp53
 70
     1
102
RTVSPost2010Prop54
  1
strokes_ogs.tif
102
RTVSPost2010PropOp54
 70
     1
102
RTVSPost2010Prop55
280
     0
102
RTVSPost2010PropOp55
 70
     1
102
RTVSPost2010Prop56
140
1.0
102
RTVSPost2010PropOp56
 70
     1
102
RTVSPost2010Prop57
140
1.0
102
RTVSPost2010PropOp57
 70
     1
  0
XRECORD
  5
106
102
{ACAD_REACTORS
330
105
102
}
330
105
100
AcDbXrecord
280
     1
102
RTVSPropertyOp0
 70
     1
102
RTVSPropertyOp1
 70
     1
102
RTVSPropertyOp2
 70
     1
102
RTVSPropertyOp3
 70
     1
102
RTVSPropertyOp4
 70
     1
102
RTVSPropertyOp5
 70
     1
102
RTVSPropertyOp6
 70
     1
102
RTVSPropertyOp7
 70
     1
102
RTVSPropertyOp8
 70
     1
102
RTVSPropertyOp9
 70
     1
102
RTVSPropertyOp10
 70
     1
102
RTVSPropertyOp11
 70
     1
102
RTVSPropertyOp12
 70
     1
102
RTVSPropertyOp13
 70
     1
102
RTVSPropertyOp14
 70
     1
102
RTVSPropertyOp15
 70
     1
102
RTVSPropertyOp16
 70
     1
102
RTVSPropertyOp17
 70
     1
102
RTVSPropertyOp18
 70
     1
102
RTVSPropertyOp19
 70
     1
102
RTVSPropertyOp20
 70
     1
102
RTVSPropertyOp21
 70
     1
102
RTVSPropertyOp22
 70
     1
102
RTVSPropertyOp23
 70
     1
102
RTVSPropertyOp24
 70
     1
102
RTVSPropertyOp25
 70
     1
102
RTVSPropertyOp26
 70
     1
102
RTVSPropertyOp27
 70
     1
102
RTVSPropertyOp28
 70
     1
102
RTVSPropertyOp29
 70
     1
102
RTVSPropertyOp30
 70
     1
102
RTVSPropertyOp31
 70
     1
102
RTVSPropertyOp32
 70
     1
102
RTVSPropertyOp33
 70
     1
102
RTVSPropertyOp34
 70
     1
102
RTVSPropertyOp35
 70
     1
102
RTVSPropertyOp36
 70
     1
102
RTVSPropertyOp37
 70
     1
102
RTVSPropertyOp38
 70
     1
102
RTVSPropertyOp39
 70
     1
102
RTVSPropertyOp40
 70
     1
102
RTVSPropertyOp41
 70
     1
102
RTVSPropertyOp42
 70
     1
102
RTVSPropertyOp43
 70
     1
102
RTVSPropertyOp44
 70
     1
102
RTVSPropertyOp45
 70
     1
102
RTVSPropertyOp46
 70
     1
102
RTVSPropertyOp47
 70
     1
102
RTVSPropertyOp48
 70
     1
102
RTVSPropertyOp49
 70
     1
102
RTVSPropertyOp50
 70
     1
102
RTVSPropertyOp51
 70
     0
102
RTVSPropertyOp52
 70
     0
102
RTVSPropertyOp53
 70
     1
102
RTVSPropertyOp54
 70
     1
102
RTVSPropertyOp55
 70
     1
102
RTVSPropertyOp56
 70
     1
102
RTVSPropertyOp57
 70
     1
102
RTVSPost2010Prop28
280
     0
102
RTVSPost2010PropOp28
 70
     1
102
RTVSPost2010Prop29
280
     1
102
RTVSPost2010PropOp29
 70
     1
102
RTVSPost2010Prop30
280
     1
102
RTVSPost2010PropOp30
 70
     1
102
RTVSPost2010Prop31
280
     0
102
RTVSPost2010PropOp31
 70
     1
102
RTVSPost2010Prop32
280
     0
102
RTVSPost2010PropOp32
 70
     1
102
RTVSPost2010Prop33
280
     0
102
RTVSPost2010PropOp33
 70
     1
102
RTVSPost2010Prop34
280
     0
102
RTVSPost2010PropOp34
 70
     1
102
RTVSPost2010Prop35
280
     0
102
RTVSPost2010PropOp35
 70
     1
102
RTVSPost2010Prop36
280
     0
102
RTVSPost2010PropOp36
 70
     1
102
RTVSPost2010Prop37
 90
       50
102
RTVSPost2010PropOp37
 70
     1
102
RTVSPost2010Prop38
140
0.0
102
RTVSPost2010PropOp38
 70
     1
102
RTVSPost2010Prop39
140
1.0
102
RTVSPost2010PropOp39
 70
     1
102
RTVSPost2010Prop40
 90
        0
102
RTVSPost2010PropOp40
 70
     1
102
RTVSPost2010Prop41ColorIndex
 90
       18
102
RTVSPost2010Prop41ColorRGB
 90
        0
102
RTVSPost2010PropOp41
 70
     1
102
RTVSPost2010Prop42
 90
       50
102
RTVSPost2010PropOp42
 70
     1
102
RTVSPost2010Prop43
 90
        3
102
RTVSPost2010PropOp43
 70
     1
102
RTVSPost2010Prop44ColorIndex
 90
        5
102
RTVSPost2010Prop44ColorRGB
 90
      255
102
RTVSPost2010PropOp44
 70
     1
102
RTVSPost2010Prop45
280
     0
102
RTVSPost2010PropOp45
 70
     1
102
RTVSPost2010Prop46
 90
       50
102
RTVSPost2010PropOp46
 70
     1
102
RTVSPost2010Prop47
 90
       50
102
RTVSPost2010PropOp47
 70
     1
102
RTVSPost2010Prop48
 90
       50
102
RTVSPost2010PropOp48
 70
     1
102
RTVSPost2010Prop49
280
     0
102
RTVSPost2010PropOp49
 70
     1
102
RTVSPost2010Prop50
 90
       50
102
RTVSPost2010PropOp50
 70
     1
102
RTVSPost2010Prop51ColorIndex
 90
      256
102
RTVSPost2010Prop51ColorRGB
 90
-16777216
102
RTVSPost2010PropOp51
 70
     0
102
RTVSPost2010Prop52
140
1.0
102
RTVSPost2010PropOp52
 70
     0
102
RTVSPost2010Prop53
 90
        2
102
RTVSPost2010PropOp53
 70
     1
102
RTVSPost2010Prop54
  1
strokes_ogs.tif
102
RTVSPost2010PropOp54
 70
     1
102
RTVSPost2010Prop55
280
     0
102
RTVSPost2010PropOp55
 70
     1
102
RTVSPost2010Prop56
140
1.0
102
RTVSPost2010PropOp56
 70
     1
102
RTVSPost2010Prop57
140
1.0
102
RTVSPost2010PropOp57
 70
     1
  0
XRECORD
  5
10E
102
{ACAD_REACTORS
330
10D
102
}
330
10D
100
AcDbXrecord
280
     1
102
RTVSPropertyOp0
 70
     1
102
RTVSPropertyOp1
 70
     1
102
RTVSPropertyOp2
 70
     1
102
RTVSPropertyOp3
 70
     1
102
RTVSPropertyOp4
 70
     1
102
RTVSPropertyOp5
 70
     1
102
RTVSPropertyOp6
 70
     1
102
RTVSPropertyOp7
 70
     1
102
RTVSPropertyOp8
 70
     1
102
RTVSPropertyOp9
 70
     1
102
RTVSPropertyOp10
 70
     1
102
RTVSPropertyOp11
 70
     1
102
RTVSPropertyOp12
 70
     1
102
RTVSPropertyOp13
 70
     1
102
RTVSPropertyOp14
 70
     1
102
RTVSPropertyOp15
 70
     1
102
RTVSPropertyOp16
 70
     1
102
RTVSPropertyOp17
 70
     1
102
RTVSPropertyOp18
 70
     1
102
RTVSPropertyOp19
 70
     1
102
RTVSPropertyOp20
 70
     1
102
RTVSPropertyOp21
 70
     1
102
RTVSPropertyOp22
 70
     1
102
RTVSPropertyOp23
 70
     1
102
RTVSPropertyOp24
 70
     1
102
RTVSPropertyOp25
 70
     1
102
RTVSPropertyOp26
 70
     1
102
RTVSPropertyOp27
 70
     1
102
RTVSPropertyOp28
 70
     1
102
RTVSPropertyOp29
 70
     1
102
RTVSPropertyOp30
 70
     1
102
RTVSPropertyOp31
 70
     1
102
RTVSPropertyOp32
 70
     1
102
RTVSPropertyOp33
 70
     1
102
RTVSPropertyOp34
 70
     1
102
RTVSPropertyOp35
 70
     1
102
RTVSPropertyOp36
 70
     1
102
RTVSPropertyOp37
 70
     1
102
RTVSPropertyOp38
 70
     1
102
RTVSPropertyOp39
 70
     1
102
RTVSPropertyOp40
 70
     1
102
RTVSPropertyOp41
 70
     1
102
RTVSPropertyOp42
 70
     1
102
RTVSPropertyOp43
 70
     1
102
RTVSPropertyOp44
 70
     1
102
RTVSPropertyOp45
 70
     1
102
RTVSPropertyOp46
 70
     1
102
RTVSPropertyOp47
 70
     1
102
RTVSPropertyOp48
 70
     1
102
RTVSPropertyOp49
 70
     1
102
RTVSPropertyOp50
 70
     1
102
RTVSPropertyOp51
 70
     0
102
RTVSPropertyOp52
 70
     0
102
RTVSPropertyOp53
 70
     1
102
RTVSPropertyOp54
 70
     1
102
RTVSPropertyOp55
 70
     1
102
RTVSPropertyOp56
 70
     1
102
RTVSPropertyOp57
 70
     1
102
RTVSPost2010Prop28
280
     0
102
RTVSPost2010PropOp28
 70
     1
102
RTVSPost2010Prop29
280
     1
102
RTVSPost2010PropOp29
 70
     1
102
RTVSPost2010Prop30
280
     1
102
RTVSPost2010PropOp30
 70
     1
102
RTVSPost2010Prop31
280
     0
102
RTVSPost2010PropOp31
 70
     1
102
RTVSPost2010Prop32
280
     0
102
RTVSPost2010PropOp32
 70
     1
102
RTVSPost2010Prop33
280
     0
102
RTVSPost2010PropOp33
 70
     1
102
RTVSPost2010Prop34
280
     0
102
RTVSPost2010PropOp34
 70
     1
102
RTVSPost2010Prop35
280
     0
102
RTVSPost2010PropOp35
 70
     1
102
RTVSPost2010Prop36
280
     0
102
RTVSPost2010PropOp36
 70
     1
102
RTVSPost2010Prop37
 90
       50
102
RTVSPost2010PropOp37
 70
     1
102
RTVSPost2010Prop38
140
0.0
102
RTVSPost2010PropOp38
 70
     1
102
RTVSPost2010Prop39
140
1.0
102
RTVSPost2010PropOp39
 70
     1
102
RTVSPost2010Prop40
 90
        0
102
RTVSPost2010PropOp40
 70
     1
102
RTVSPost2010Prop41ColorIndex
 90
       18
102
RTVSPost2010Prop41ColorRGB
 90
        0
102
RTVSPost2010PropOp41
 70
     1
102
RTVSPost2010Prop42
 90
       50
102
RTVSPost2010PropOp42
 70
     1
102
RTVSPost2010Prop43
 90
        3
102
RTVSPost2010PropOp43
 70
     1
102
RTVSPost2010Prop44ColorIndex
 90
        5
102
RTVSPost2010Prop44ColorRGB
 90
      255
102
RTVSPost2010PropOp44
 70
     1
102
RTVSPost2010Prop45
280
     0
102
RTVSPost2010PropOp45
 70
     1
102
RTVSPost2010Prop46
 90
       50
102
RTVSPost2010PropOp46
 70
     1
102
RTVSPost2010Prop47
 90
       50
102
RTVSPost2010PropOp47
 70
     1
102
RTVSPost2010Prop48
 90
       50
102
RTVSPost2010PropOp48
 70
     1
102
RTVSPost2010Prop49
280
     0
102
RTVSPost2010PropOp49
 70
     1
102
RTVSPost2010Prop50
 90
       50
102
RTVSPost2010PropOp50
 70
     1
102
RTVSPost2010Prop51ColorIndex
 90
      256
102
RTVSPost2010Prop51ColorRGB
 90
-16777216
102
RTVSPost2010PropOp51
 70
     0
102
RTVSPost2010Prop52
140
1.0
102
RTVSPost2010PropOp52
 70
     0
102
RTVSPost2010Prop53
 90
        2
102
RTVSPost2010PropOp53
 70
     1
102
RTVSPost2010Prop54
  1
strokes_ogs.tif
102
RTVSPost2010PropOp54
 70
     1
102
RTVSPost2010Prop55
280
     0
102
RTVSPost2010PropOp55
 70
     1
102
RTVSPost2010Prop56
140
1.0
102
RTVSPost2010PropOp56
 70
     1
102
RTVSPost2010Prop57
140
1.0
102
RTVSPost2010PropOp57
 70
     1
  0
XRECORD
  5
102
102
{ACAD_REACTORS
330
101
102
}
330
101
100
AcDbXrecord
280
     1
102
RTVSPropertyOp0
 70
     1
102
RTVSPropertyOp1
 70
     1
102
RTVSPropertyOp2
 70
     1
102
RTVSPropertyOp3
 70
     1
102
RTVSPropertyOp4
 70
     1
102
RTVSPropertyOp5
 70
     1
102
RTVSPropertyOp6
 70
     1
102
RTVSPropertyOp7
 70
     1
102
RTVSPropertyOp8
 70
     1
102
RTVSPropertyOp9
 70
     1
102
RTVSPropertyOp10
 70
     1
102
RTVSPropertyOp11
 70
     1
102
RTVSPropertyOp12
 70
     1
102
RTVSPropertyOp13
 70
     1
102
RTVSPropertyOp14
 70
     1
102
RTVSPropertyOp15
 70
     1
102
RTVSPropertyOp16
 70
     1
102
RTVSPropertyOp17
 70
     1
102
RTVSPropertyOp18
 70
     1
102
RTVSPropertyOp19
 70
     1
102
RTVSPropertyOp20
 70
     1
102
RTVSPropertyOp21
 70
     1
102
RTVSPropertyOp22
 70
     1
102
RTVSPropertyOp23
 70
     1
102
RTVSPropertyOp24
 70
     1
102
RTVSPropertyOp25
 70
     1
102
RTVSPropertyOp26
 70
     1
102
RTVSPropertyOp27
 70
     1
102
RTVSPropertyOp28
 70
     1
102
RTVSPropertyOp29
 70
     1
102
RTVSPropertyOp30
 70
     1
102
RTVSPropertyOp31
 70
     1
102
RTVSPropertyOp32
 70
     1
102
RTVSPropertyOp33
 70
     1
102
RTVSPropertyOp34
 70
     1
102
RTVSPropertyOp35
 70
     1
102
RTVSPropertyOp36
 70
     1
102
RTVSPropertyOp37
 70
     1
102
RTVSPropertyOp38
 70
     1
102
RTVSPropertyOp39
 70
     1
102
RTVSPropertyOp40
 70
     1
102
RTVSPropertyOp41
 70
     1
102
RTVSPropertyOp42
 70
     1
102
RTVSPropertyOp43
 70
     1
102
RTVSPropertyOp44
 70
     1
102
RTVSPropertyOp45
 70
     1
102
RTVSPropertyOp46
 70
     1
102
RTVSPropertyOp47
 70
     1
102
RTVSPropertyOp48
 70
     1
102
RTVSPropertyOp49
 70
     1
102
RTVSPropertyOp50
 70
     1
102
RTVSPropertyOp51
 70
     0
102
RTVSPropertyOp52
 70
     0
102
RTVSPropertyOp53
 70
     1
102
RTVSPropertyOp54
 70
     1
102
RTVSPropertyOp55
 70
     1
102
RTVSPropertyOp56
 70
     1
102
RTVSPropertyOp57
 70
     1
102
RTVSPost2010Prop28
280
     0
102
RTVSPost2010PropOp28
 70
     1
102
RTVSPost2010Prop29
280
     1
102
RTVSPost2010PropOp29
 70
     1
102
RTVSPost2010Prop30
280
     1
102
RTVSPost2010PropOp30
 70
     1
102
RTVSPost2010Prop31
280
     0
102
RTVSPost2010PropOp31
 70
     1
102
RTVSPost2010Prop32
280
     0
102
RTVSPost2010PropOp32
 70
     1
102
RTVSPost2010Prop33
280
     0
102
RTVSPost2010PropOp33
 70
     1
102
RTVSPost2010Prop34
280
     0
102
RTVSPost2010PropOp34
 70
     1
102
RTVSPost2010Prop35
280
     0
102
RTVSPost2010PropOp35
 70
     1
102
RTVSPost2010Prop36
280
     0
102
RTVSPost2010PropOp36
 70
     1
102
RTVSPost2010Prop37
 90
       50
102
RTVSPost2010PropOp37
 70
     1
102
RTVSPost2010Prop38
140
0.0
102
RTVSPost2010PropOp38
 70
     1
102
RTVSPost2010Prop39
140
1.0
102
RTVSPost2010PropOp39
 70
     1
102
RTVSPost2010Prop40
 90
        0
102
RTVSPost2010PropOp40
 70
     1
102
RTVSPost2010Prop41ColorIndex
 90
       18
102
RTVSPost2010Prop41ColorRGB
 90
        0
102
RTVSPost2010PropOp41
 70
     1
102
RTVSPost2010Prop42
 90
       50
102
RTVSPost2010PropOp42
 70
     1
102
RTVSPost2010Prop43
 90
        3
102
RTVSPost2010PropOp43
 70
     1
102
RTVSPost2010Prop44ColorIndex
 90
        5
102
RTVSPost2010Prop44ColorRGB
 90
      255
102
RTVSPost2010PropOp44
 70
     1
102
RTVSPost2010Prop45
280
     0
102
RTVSPost2010PropOp45
 70
     1
102
RTVSPost2010Prop46
 90
       50
102
RTVSPost2010PropOp46
 70
     1
102
RTVSPost2010Prop47
 90
       50
102
RTVSPost2010PropOp47
 70
     1
102
RTVSPost2010Prop48
 90
       50
102
RTVSPost2010PropOp48
 70
     1
102
RTVSPost2010Prop49
280
     0
102
RTVSPost2010PropOp49
 70
     1
102
RTVSPost2010Prop50
 90
       50
102
RTVSPost2010PropOp50
 70
     1
102
RTVSPost2010Prop51ColorIndex
 90
      256
102
RTVSPost2010Prop51ColorRGB
 90
-16777216
102
RTVSPost2010PropOp51
 70
     0
102
RTVSPost2010Prop52
140
1.0
102
RTVSPost2010PropOp52
 70
     0
102
RTVSPost2010Prop53
 90
        2
102
RTVSPost2010PropOp53
 70
     1
102
RTVSPost2010Prop54
  1
strokes_ogs.tif
102
RTVSPost2010PropOp54
 70
     1
102
RTVSPost2010Prop55
280
     0
102
RTVSPost2010PropOp55
 70
     1
102
RTVSPost2010Prop56
140
1.0
102
RTVSPost2010PropOp56
 70
     1
102
RTVSPost2010Prop57
140
1.0
102
RTVSPost2010PropOp57
 70
     1
  0
XRECORD
  5
104
102
{ACAD_REACTORS
330
103
102
}
330
103
100
AcDbXrecord
280
     1
102
RTVSPropertyOp0
 70
     1
102
RTVSPropertyOp1
 70
     1
102
RTVSPropertyOp2
 70
     1
102
RTVSPropertyOp3
 70
     1
102
RTVSPropertyOp4
 70
     1
102
RTVSPropertyOp5
 70
     1
102
RTVSPropertyOp6
 70
     1
102
RTVSPropertyOp7
 70
     1
102
RTVSPropertyOp8
 70
     1
102
RTVSPropertyOp9
 70
     1
102
RTVSPropertyOp10
 70
     1
102
RTVSPropertyOp11
 70
     1
102
RTVSPropertyOp12
 70
     1
102
RTVSPropertyOp13
 70
     1
102
RTVSPropertyOp14
 70
     1
102
RTVSPropertyOp15
 70
     1
102
RTVSPropertyOp16
 70
     1
102
RTVSPropertyOp17
 70
     1
102
RTVSPropertyOp18
 70
     1
102
RTVSPropertyOp19
 70
     1
102
RTVSPropertyOp20
 70
     1
102
RTVSPropertyOp21
 70
     1
102
RTVSPropertyOp22
 70
     1
102
RTVSPropertyOp23
 70
     1
102
RTVSPropertyOp24
 70
     1
102
RTVSPropertyOp25
 70
     1
102
RTVSPropertyOp26
 70
     1
102
RTVSPropertyOp27
 70
     1
102
RTVSPropertyOp28
 70
     1
102
RTVSPropertyOp29
 70
     1
102
RTVSPropertyOp30
 70
     1
102
RTVSPropertyOp31
 70
     1
102
RTVSPropertyOp32
 70
     1
102
RTVSPropertyOp33
 70
     1
102
RTVSPropertyOp34
 70
     1
102
RTVSPropertyOp35
 70
     1
102
RTVSPropertyOp36
 70
     1
102
RTVSPropertyOp37
 70
     1
102
RTVSPropertyOp38
 70
     1
102
RTVSPropertyOp39
 70
     1
102
RTVSPropertyOp40
 70
     1
102
RTVSPropertyOp41
 70
     1
102
RTVSPropertyOp42
 70
     1
102
RTVSPropertyOp43
 70
     1
102
RTVSPropertyOp44
 70
     1
102
RTVSPropertyOp45
 70
     1
102
RTVSPropertyOp46
 70
     1
102
RTVSPropertyOp47
 70
     1
102
RTVSPropertyOp48
 70
     1
102
RTVSPropertyOp49
 70
     1
102
RTVSPropertyOp50
 70
     1
102
RTVSPropertyOp51
 70
     0
102
RTVSPropertyOp52
 70
     0
102
RTVSPropertyOp53
 70
     1
102
RTVSPropertyOp54
 70
     1
102
RTVSPropertyOp55
 70
     1
102
RTVSPropertyOp56
 70
     1
102
RTVSPropertyOp57
 70
     1
102
RTVSPost2010Prop28
280
     0
102
RTVSPost2010PropOp28
 70
     1
102
RTVSPost2010Prop29
280
     1
102
RTVSPost2010PropOp29
 70
     1
102
RTVSPost2010Prop30
280
     1
102
RTVSPost2010PropOp30
 70
     1
102
RTVSPost2010Prop31
280
     0
102
RTVSPost2010PropOp31
 70
     1
102
RTVSPost2010Prop32
280
     0
102
RTVSPost2010PropOp32
 70
     1
102
RTVSPost2010Prop33
280
     0
102
RTVSPost2010PropOp33
 70
     1
102
RTVSPost2010Prop34
280
     0
102
RTVSPost2010PropOp34
 70
     1
102
RTVSPost2010Prop35
280
     0
102
RTVSPost2010PropOp35
 70
     1
102
RTVSPost2010Prop36
280
     0
102
RTVSPost2010PropOp36
 70
     1
102
RTVSPost2010Prop37
 90
       50
102
RTVSPost2010PropOp37
 70
     1
102
RTVSPost2010Prop38
140
0.0
102
RTVSPost2010PropOp38
 70
     1
102
RTVSPost2010Prop39
140
1.0
102
RTVSPost2010PropOp39
 70
     1
102
RTVSPost2010Prop40
 90
        0
102
RTVSPost2010PropOp40
 70
     1
102
RTVSPost2010Prop41ColorIndex
 90
       18
102
RTVSPost2010Prop41ColorRGB
 90
        0
102
RTVSPost2010PropOp41
 70
     1
102
RTVSPost2010Prop42
 90
       50
102
RTVSPost2010PropOp42
 70
     1
102
RTVSPost2010Prop43
 90
        3
102
RTVSPost2010PropOp43
 70
     1
102
RTVSPost2010Prop44ColorIndex
 90
        5
102
RTVSPost2010Prop44ColorRGB
 90
      255
102
RTVSPost2010PropOp44
 70
     1
102
RTVSPost2010Prop45
280
     0
102
RTVSPost2010PropOp45
 70
     1
102
RTVSPost2010Prop46
 90
       50
102
RTVSPost2010PropOp46
 70
     1
102
RTVSPost2010Prop47
 90
       50
102
RTVSPost2010PropOp47
 70
     1
102
RTVSPost2010Prop48
 90
       50
102
RTVSPost2010PropOp48
 70
     1
102
RTVSPost2010Prop49
280
     0
102
RTVSPost2010PropOp49
 70
     1
102
RTVSPost2010Prop50
 90
       50
102
RTVSPost2010PropOp50
 70
     1
102
RTVSPost2010Prop51ColorIndex
 90
      256
102
RTVSPost2010Prop51ColorRGB
 90
-16777216
102
RTVSPost2010PropOp51
 70
     0
102
RTVSPost2010Prop52
140
1.0
102
RTVSPost2010PropOp52
 70
     0
102
RTVSPost2010Prop53
 90
        2
102
RTVSPost2010PropOp53
 70
     1
102
RTVSPost2010Prop54
  1
strokes_ogs.tif
102
RTVSPost2010PropOp54
 70
     1
102
RTVSPost2010Prop55
280
     0
102
RTVSPost2010PropOp55
 70
     1
102
RTVSPost2010Prop56
140
1.0
102
RTVSPost2010PropOp56
 70
     1
102
RTVSPost2010Prop57
140
1.0
102
RTVSPost2010PropOp57
 70
     1
  0
XRECORD
  5
114
102
{ACAD_REACTORS
330
113
102
}
330
113
100
AcDbXrecord
280
     1
102
RTVSPropertyOp0
 70
     0
102
RTVSPropertyOp1
 70
     0
102
RTVSPropertyOp2
 70
     0
102
RTVSPropertyOp3
 70
     0
102
RTVSPropertyOp4
 70
     0
102
RTVSPropertyOp5
 70
     0
102
RTVSPropertyOp6
 70
     0
102
RTVSPropertyOp7
 70
     0
102
RTVSPropertyOp8
 70
     0
102
RTVSPropertyOp9
 70
     0
102
RTVSPropertyOp10
 70
     0
102
RTVSPropertyOp11
 70
     0
102
RTVSPropertyOp12
 70
     0
102
RTVSPropertyOp13
 70
     0
102
RTVSPropertyOp14
 70
     2
102
RTVSPropertyOp15
 70
     0
102
RTVSPropertyOp16
 70
     0
102
RTVSPropertyOp17
 70
     0
102
RTVSPropertyOp18
 70
     0
102
RTVSPropertyOp19
 70
     0
102
RTVSPropertyOp20
 70
     0
102
RTVSPropertyOp21
 70
     0
102
RTVSPropertyOp22
 70
     0
102
RTVSPropertyOp23
 70
     0
102
RTVSPropertyOp24
 70
     0
102
RTVSPropertyOp25
 70
     0
102
RTVSPropertyOp26
 70
     0
102
RTVSPropertyOp27
 70
     0
102
RTVSPropertyOp28
 70
     0
102
RTVSPropertyOp29
 70
     0
102
RTVSPropertyOp30
 70
     0
102
RTVSPropertyOp31
 70
     0
102
RTVSPropertyOp32
 70
     0
102
RTVSPropertyOp33
 70
     0
102
RTVSPropertyOp34
 70
     0
102
RTVSPropertyOp35
 70
     0
102
RTVSPropertyOp36
 70
     0
102
RTVSPropertyOp37
 70
     0
102
RTVSPropertyOp38
 70
     0
102
RTVSPropertyOp39
 70
     0
102
RTVSPropertyOp40
 70
     0
102
RTVSPropertyOp41
 70
     0
102
RTVSPropertyOp42
 70
     0
102
RTVSPropertyOp43
 70
     0
102
RTVSPropertyOp44
 70
     0
102
RTVSPropertyOp45
 70
     0
102
RTVSPropertyOp46
 70
     0
102
RTVSPropertyOp47
 70
     0
102
RTVSPropertyOp48
 70
     0
102
RTVSPropertyOp49
 70
     0
102
RTVSPropertyOp50
 70
     0
102
RTVSPropertyOp51
 70
     0
102
RTVSPropertyOp52
 70
     0
102
RTVSPropertyOp53
 70
     0
102
RTVSPropertyOp54
 70
     0
102
RTVSPropertyOp55
 70
     0
102
RTVSPropertyOp56
 70
     0
102
RTVSPropertyOp57
 70
     0
102
RTVSPost2010Prop28
280
     0
102
RTVSPost2010PropOp28
 70
     0
102
RTVSPost2010Prop29
280
     1
102
RTVSPost2010PropOp29
 70
     0
102
RTVSPost2010Prop30
280
     1
102
RTVSPost2010PropOp30
 70
     0
102
RTVSPost2010Prop31
280
     0
102
RTVSPost2010PropOp31
 70
     0
102
RTVSPost2010Prop32
280
     0
102
RTVSPost2010PropOp32
 70
     0
102
RTVSPost2010Prop33
280
     0
102
RTVSPost2010PropOp33
 70
     0
102
RTVSPost2010Prop34
280
     0
102
RTVSPost2010PropOp34
 70
     0
102
RTVSPost2010Prop35
280
     0
102
RTVSPost2010PropOp35
 70
     0
102
RTVSPost2010Prop36
280
     0
102
RTVSPost2010PropOp36
 70
     0
102
RTVSPost2010Prop37
 90
       50
102
RTVSPost2010PropOp37
 70
     0
102
RTVSPost2010Prop38
140
0.0
102
RTVSPost2010PropOp38
 70
     0
102
RTVSPost2010Prop39
140
1.0
102
RTVSPost2010PropOp39
 70
     0
102
RTVSPost2010Prop40
 90
        0
102
RTVSPost2010PropOp40
 70
     0
102
RTVSPost2010Prop41ColorIndex
 90
       18
102
RTVSPost2010Prop41ColorRGB
 90
        0
102
RTVSPost2010PropOp41
 70
     0
102
RTVSPost2010Prop42
 90
       50
102
RTVSPost2010PropOp42
 70
     0
102
RTVSPost2010Prop43
 90
        3
102
RTVSPost2010PropOp43
 70
     0
102
RTVSPost2010Prop44ColorIndex
 90
        5
102
RTVSPost2010Prop44ColorRGB
 90
      255
102
RTVSPost2010PropOp44
 70
     0
102
RTVSPost2010Prop45
280
     0
102
RTVSPost2010PropOp45
 70
     0
102
RTVSPost2010Prop46
 90
       50
102
RTVSPost2010PropOp46
 70
     0
102
RTVSPost2010Prop47
 90
       50
102
RTVSPost2010PropOp47
 70
     0
102
RTVSPost2010Prop48
 90
       50
102
RTVSPost2010PropOp48
 70
     0
102
RTVSPost2010Prop49
280
     0
102
RTVSPost2010PropOp49
 70
     0
102
RTVSPost2010Prop50
 90
       50
102
RTVSPost2010PropOp50
 70
     0
102
RTVSPost2010Prop51ColorIndex
 90
      256
102
RTVSPost2010Prop51ColorRGB
 90
-16777216
102
RTVSPost2010PropOp51
 70
     0
102
RTVSPost2010Prop52
140
1.0
102
RTVSPost2010PropOp52
 70
     0
102
RTVSPost2010Prop53
 90
        2
102
RTVSPost2010PropOp53
 70
     0
102
RTVSPost2010Prop54
  1
strokes_ogs.tif
102
RTVSPost2010PropOp54
 70
     0
102
RTVSPost2010Prop55
280
     0
102
RTVSPost2010PropOp55
 70
     0
102
RTVSPost2010Prop56
140
1.0
102
RTVSPost2010PropOp56
 70
     0
102
RTVSPost2010Prop57
140
1.0
102
RTVSPost2010PropOp57
 70
     0
  0
XRECORD
  5
10C
102
{ACAD_REACTORS
330
10B
102
}
330
10B
100
AcDbXrecord
280
     1
102
RTVSPropertyOp0
 70
     1
102
RTVSPropertyOp1
 70
     1
102
RTVSPropertyOp2
 70
     1
102
RTVSPropertyOp3
 70
     1
102
RTVSPropertyOp4
 70
     1
102
RTVSPropertyOp5
 70
     1
102
RTVSPropertyOp6
 70
     1
102
RTVSPropertyOp7
 70
     1
102
RTVSPropertyOp8
 70
     1
102
RTVSPropertyOp9
 70
     1
102
RTVSPropertyOp10
 70
     1
102
RTVSPropertyOp11
 70
     1
102
RTVSPropertyOp12
 70
     1
102
RTVSPropertyOp13
 70
     1
102
RTVSPropertyOp14
 70
     1
102
RTVSPropertyOp15
 70
     1
102
RTVSPropertyOp16
 70
     1
102
RTVSPropertyOp17
 70
     1
102
RTVSPropertyOp18
 70
     1
102
RTVSPropertyOp19
 70
     1
102
RTVSPropertyOp20
 70
     1
102
RTVSPropertyOp21
 70
     1
102
RTVSPropertyOp22
 70
     1
102
RTVSPropertyOp23
 70
     1
102
RTVSPropertyOp24
 70
     1
102
RTVSPropertyOp25
 70
     1
102
RTVSPropertyOp26
 70
     1
102
RTVSPropertyOp27
 70
     1
102
RTVSPropertyOp28
 70
     1
102
RTVSPropertyOp29
 70
     1
102
RTVSPropertyOp30
 70
     1
102
RTVSPropertyOp31
 70
     1
102
RTVSPropertyOp32
 70
     1
102
RTVSPropertyOp33
 70
     1
102
RTVSPropertyOp34
 70
     1
102
RTVSPropertyOp35
 70
     1
102
RTVSPropertyOp36
 70
     1
102
RTVSPropertyOp37
 70
     1
102
RTVSPropertyOp38
 70
     1
102
RTVSPropertyOp39
 70
     1
102
RTVSPropertyOp40
 70
     1
102
RTVSPropertyOp41
 70
     1
102
RTVSPropertyOp42
 70
     1
102
RTVSPropertyOp43
 70
     1
102
RTVSPropertyOp44
 70
     1
102
RTVSPropertyOp45
 70
     1
102
RTVSPropertyOp46
 70
     1
102
RTVSPropertyOp47
 70
     1
102
RTVSPropertyOp48
 70
     1
102
RTVSPropertyOp49
 70
     1
102
RTVSPropertyOp50
 70
     1
102
RTVSPropertyOp51
 70
     0
102
RTVSPropertyOp52
 70
     0
102
RTVSPropertyOp53
 70
     1
102
RTVSPropertyOp54
 70
     1
102
RTVSPropertyOp55
 70
     1
102
RTVSPropertyOp56
 70
     1
102
RTVSPropertyOp57
 70
     1
102
RTVSPost2010Prop28
280
     0
102
RTVSPost2010PropOp28
 70
     1
102
RTVSPost2010Prop29
280
     1
102
RTVSPost2010PropOp29
 70
     1
102
RTVSPost2010Prop30
280
     1
102
RTVSPost2010PropOp30
 70
     1
102
RTVSPost2010Prop31
280
     0
102
RTVSPost2010PropOp31
 70
     1
102
RTVSPost2010Prop32
280
     0
102
RTVSPost2010PropOp32
 70
     1
102
RTVSPost2010Prop33
280
     0
102
RTVSPost2010PropOp33
 70
     1
102
RTVSPost2010Prop34
280
     0
102
RTVSPost2010PropOp34
 70
     1
102
RTVSPost2010Prop35
280
     0
102
RTVSPost2010PropOp35
 70
     1
102
RTVSPost2010Prop36
280
     0
102
RTVSPost2010PropOp36
 70
     1
102
RTVSPost2010Prop37
 90
       50
102
RTVSPost2010PropOp37
 70
     1
102
RTVSPost2010Prop38
140
0.0
102
RTVSPost2010PropOp38
 70
     1
102
RTVSPost2010Prop39
140
1.0
102
RTVSPost2010PropOp39
 70
     1
102
RTVSPost2010Prop40
 90
        0
102
RTVSPost2010PropOp40
 70
     1
102
RTVSPost2010Prop41ColorIndex
 90
       18
102
RTVSPost2010Prop41ColorRGB
 90
        0
102
RTVSPost2010PropOp41
 70
     1
102
RTVSPost2010Prop42
 90
       50
102
RTVSPost2010PropOp42
 70
     1
102
RTVSPost2010Prop43
 90
        3
102
RTVSPost2010PropOp43
 70
     1
102
RTVSPost2010Prop44ColorIndex
 90
        5
102
RTVSPost2010Prop44ColorRGB
 90
      255
102
RTVSPost2010PropOp44
 70
     1
102
RTVSPost2010Prop45
280
     0
102
RTVSPost2010PropOp45
 70
     1
102
RTVSPost2010Prop46
 90
       50
102
RTVSPost2010PropOp46
 70
     1
102
RTVSPost2010Prop47
 90
       50
102
RTVSPost2010PropOp47
 70
     1
102
RTVSPost2010Prop48
 90
       50
102
RTVSPost2010PropOp48
 70
     1
102
RTVSPost2010Prop49
280
     0
102
RTVSPost2010PropOp49
 70
     1
102
RTVSPost2010Prop50
 90
       50
102
RTVSPost2010PropOp50
 70
     1
102
RTVSPost2010Prop51ColorIndex
 90
      256
102
RTVSPost2010Prop51ColorRGB
 90
-16777216
102
RTVSPost2010PropOp51
 70
     0
102
RTVSPost2010Prop52
140
1.0
102
RTVSPost2010PropOp52
 70
     0
102
RTVSPost2010Prop53
 90
        2
102
RTVSPost2010PropOp53
 70
     1
102
RTVSPost2010Prop54
  1
strokes_ogs.tif
102
RTVSPost2010PropOp54
 70
     1
102
RTVSPost2010Prop55
280
     0
102
RTVSPost2010PropOp55
 70
     1
102
RTVSPost2010Prop56
140
1.0
102
RTVSPost2010PropOp56
 70
     1
102
RTVSPost2010Prop57
140
1.0
102
RTVSPost2010PropOp57
 70
     1
  0
XRECORD
  5
F0
102
{ACAD_REACTORS
330
EF
102
}
330
EF
100
AcDbXrecord
280
     1
102
RTVSPropertyOp0
 70
     1
102
RTVSPropertyOp1
 70
     1
102
RTVSPropertyOp2
 70
     1
102
RTVSPropertyOp3
 70
     1
102
RTVSPropertyOp4
 70
     1
102
RTVSPropertyOp5
 70
     1
102
RTVSPropertyOp6
 70
     1
102
RTVSPropertyOp7
 70
     1
102
RTVSPropertyOp8
 70
     1
102
RTVSPropertyOp9
 70
     1
102
RTVSPropertyOp10
 70
     1
102
RTVSPropertyOp11
 70
     1
102
RTVSPropertyOp12
 70
     1
102
RTVSPropertyOp13
 70
     1
102
RTVSPropertyOp14
 70
     1
102
RTVSPropertyOp15
 70
     1
102
RTVSPropertyOp16
 70
     1
102
RTVSPropertyOp17
 70
     1
102
RTVSPropertyOp18
 70
     1
102
RTVSPropertyOp19
 70
     1
102
RTVSPropertyOp20
 70
     1
102
RTVSPropertyOp21
 70
     1
102
RTVSPropertyOp22
 70
     1
102
RTVSPropertyOp23
 70
     1
102
RTVSPropertyOp24
 70
     1
102
RTVSPropertyOp25
 70
     1
102
RTVSPropertyOp26
 70
     1
102
RTVSPropertyOp27
 70
     1
102
RTVSPropertyOp28
 70
     1
102
RTVSPropertyOp29
 70
     1
102
RTVSPropertyOp30
 70
     1
102
RTVSPropertyOp31
 70
     1
102
RTVSPropertyOp32
 70
     1
102
RTVSPropertyOp33
 70
     1
102
RTVSPropertyOp34
 70
     1
102
RTVSPropertyOp35
 70
     1
102
RTVSPropertyOp36
 70
     1
102
RTVSPropertyOp37
 70
     1
102
RTVSPropertyOp38
 70
     1
102
RTVSPropertyOp39
 70
     1
102
RTVSPropertyOp40
 70
     1
102
RTVSPropertyOp41
 70
     1
102
RTVSPropertyOp42
 70
     1
102
RTVSPropertyOp43
 70
     1
102
RTVSPropertyOp44
 70
     1
102
RTVSPropertyOp45
 70
     1
102
RTVSPropertyOp46
 70
     1
102
RTVSPropertyOp47
 70
     1
102
RTVSPropertyOp48
 70
     1
102
RTVSPropertyOp49
 70
     1
102
RTVSPropertyOp50
 70
     1
102
RTVSPropertyOp51
 70
     0
102
RTVSPropertyOp52
 70
     0
102
RTVSPropertyOp53
 70
     1
102
RTVSPropertyOp54
 70
     1
102
RTVSPropertyOp55
 70
     1
102
RTVSPropertyOp56
 70
     1
102
RTVSPropertyOp57
 70
     1
102
RTVSPost2010Prop28
280
     0
102
RTVSPost2010PropOp28
 70
     1
102
RTVSPost2010Prop29
280
     1
102
RTVSPost2010PropOp29
 70
     1
102
RTVSPost2010Prop30
280
     1
102
RTVSPost2010PropOp30
 70
     1
102
RTVSPost2010Prop31
280
     0
102
RTVSPost2010PropOp31
 70
     1
102
RTVSPost2010Prop32
280
     0
102
RTVSPost2010PropOp32
 70
     1
102
RTVSPost2010Prop33
280
     0
102
RTVSPost2010PropOp33
 70
     1
102
RTVSPost2010Prop34
280
     0
102
RTVSPost2010PropOp34
 70
     1
102
RTVSPost2010Prop35
280
     0
102
RTVSPost2010PropOp35
 70
     1
102
RTVSPost2010Prop36
280
     0
102
RTVSPost2010PropOp36
 70
     1
102
RTVSPost2010Prop37
 90
       50
102
RTVSPost2010PropOp37
 70
     1
102
RTVSPost2010Prop38
140
0.0
102
RTVSPost2010PropOp38
 70
     1
102
RTVSPost2010Prop39
140
1.0
102
RTVSPost2010PropOp39
 70
     1
102
RTVSPost2010Prop40
 90
        0
102
RTVSPost2010PropOp40
 70
     1
102
RTVSPost2010Prop41ColorIndex
 90
       18
102
RTVSPost2010Prop41ColorRGB
 90
        0
102
RTVSPost2010PropOp41
 70
     1
102
RTVSPost2010Prop42
 90
       50
102
RTVSPost2010PropOp42
 70
     1
102
RTVSPost2010Prop43
 90
        3
102
RTVSPost2010PropOp43
 70
     1
102
RTVSPost2010Prop44ColorIndex
 90
        5
102
RTVSPost2010Prop44ColorRGB
 90
      255
102
RTVSPost2010PropOp44
 70
     1
102
RTVSPost2010Prop45
280
     0
102
RTVSPost2010PropOp45
 70
     1
102
RTVSPost2010Prop46
 90
       50
102
RTVSPost2010PropOp46
 70
     1
102
RTVSPost2010Prop47
 90
       50
102
RTVSPost2010PropOp47
 70
     1
102
RTVSPost2010Prop48
 90
       50
102
RTVSPost2010PropOp48
 70
     1
102
RTVSPost2010Prop49
280
     0
102
RTVSPost2010PropOp49
 70
     1
102
RTVSPost2010Prop50
 90
       50
102
RTVSPost2010PropOp50
 70
     1
102
RTVSPost2010Prop51ColorIndex
 90
      256
102
RTVSPost2010Prop51ColorRGB
 90
-16777216
102
RTVSPost2010PropOp51
 70
     0
102
RTVSPost2010Prop52
140
1.0
102
RTVSPost2010PropOp52
 70
     0
102
RTVSPost2010Prop53
 90
        2
102
RTVSPost2010PropOp53
 70
     1
102
RTVSPost2010Prop54
  1
strokes_ogs.tif
102
RTVSPost2010PropOp54
 70
     1
102
RTVSPost2010Prop55
280
     0
102
RTVSPost2010PropOp55
 70
     1
102
RTVSPost2010Prop56
140
1.0
102
RTVSPost2010PropOp56
 70
     1
102
RTVSPost2010Prop57
140
1.0
102
RTVSPost2010PropOp57
 70
     1
  0
XRECORD
  5
F2
102
{ACAD_REACTORS
330
F1
102
}
330
F1
100
AcDbXrecord
280
     1
102
RTVSPropertyOp0
 70
     1
102
RTVSPropertyOp1
 70
     1
102
RTVSPropertyOp2
 70
     1
102
RTVSPropertyOp3
 70
     1
102
RTVSPropertyOp4
 70
     1
102
RTVSPropertyOp5
 70
     1
102
RTVSPropertyOp6
 70
     1
102
RTVSPropertyOp7
 70
     1
102
RTVSPropertyOp8
 70
     1
102
RTVSPropertyOp9
 70
     1
102
RTVSPropertyOp10
 70
     1
102
RTVSPropertyOp11
 70
     1
102
RTVSPropertyOp12
 70
     1
102
RTVSPropertyOp13
 70
     1
102
RTVSPropertyOp14
 70
     1
102
RTVSPropertyOp15
 70
     1
102
RTVSPropertyOp16
 70
     1
102
RTVSPropertyOp17
 70
     1
102
RTVSPropertyOp18
 70
     1
102
RTVSPropertyOp19
 70
     1
102
RTVSPropertyOp20
 70
     1
102
RTVSPropertyOp21
 70
     1
102
RTVSPropertyOp22
 70
     1
102
RTVSPropertyOp23
 70
     1
102
RTVSPropertyOp24
 70
     1
102
RTVSPropertyOp25
 70
     1
102
RTVSPropertyOp26
 70
     1
102
RTVSPropertyOp27
 70
     1
102
RTVSPropertyOp28
 70
     1
102
RTVSPropertyOp29
 70
     1
102
RTVSPropertyOp30
 70
     1
102
RTVSPropertyOp31
 70
     1
102
RTVSPropertyOp32
 70
     1
102
RTVSPropertyOp33
 70
     1
102
RTVSPropertyOp34
 70
     1
102
RTVSPropertyOp35
 70
     1
102
RTVSPropertyOp36
 70
     1
102
RTVSPropertyOp37
 70
     1
102
RTVSPropertyOp38
 70
     1
102
RTVSPropertyOp39
 70
     1
102
RTVSPropertyOp40
 70
     1
102
RTVSPropertyOp41
 70
     1
102
RTVSPropertyOp42
 70
     1
102
RTVSPropertyOp43
 70
     1
102
RTVSPropertyOp44
 70
     1
102
RTVSPropertyOp45
 70
     1
102
RTVSPropertyOp46
 70
     1
102
RTVSPropertyOp47
 70
     1
102
RTVSPropertyOp48
 70
     1
102
RTVSPropertyOp49
 70
     1
102
RTVSPropertyOp50
 70
     1
102
RTVSPropertyOp51
 70
     0
102
RTVSPropertyOp52
 70
     0
102
RTVSPropertyOp53
 70
     1
102
RTVSPropertyOp54
 70
     1
102
RTVSPropertyOp55
 70
     1
102
RTVSPropertyOp56
 70
     1
102
RTVSPropertyOp57
 70
     1
102
RTVSPost2010Prop28
280
     0
102
RTVSPost2010PropOp28
 70
     1
102
RTVSPost2010Prop29
280
     1
102
RTVSPost2010PropOp29
 70
     1
102
RTVSPost2010Prop30
280
     1
102
RTVSPost2010PropOp30
 70
     1
102
RTVSPost2010Prop31
280
     0
102
RTVSPost2010PropOp31
 70
     1
102
RTVSPost2010Prop32
280
     0
102
RTVSPost2010PropOp32
 70
     1
102
RTVSPost2010Prop33
280
     0
102
RTVSPost2010PropOp33
 70
     1
102
RTVSPost2010Prop34
280
     0
102
RTVSPost2010PropOp34
 70
     1
102
RTVSPost2010Prop35
280
     0
102
RTVSPost2010PropOp35
 70
     1
102
RTVSPost2010Prop36
280
     0
102
RTVSPost2010PropOp36
 70
     1
102
RTVSPost2010Prop37
 90
       50
102
RTVSPost2010PropOp37
 70
     1
102
RTVSPost2010Prop38
140
0.0
102
RTVSPost2010PropOp38
 70
     1
102
RTVSPost2010Prop39
140
1.0
102
RTVSPost2010PropOp39
 70
     1
102
RTVSPost2010Prop40
 90
        0
102
RTVSPost2010PropOp40
 70
     1
102
RTVSPost2010Prop41ColorIndex
 90
       18
102
RTVSPost2010Prop41ColorRGB
 90
        0
102
RTVSPost2010PropOp41
 70
     1
102
RTVSPost2010Prop42
 90
       50
102
RTVSPost2010PropOp42
 70
     1
102
RTVSPost2010Prop43
 90
        3
102
RTVSPost2010PropOp43
 70
     1
102
RTVSPost2010Prop44ColorIndex
 90
        5
102
RTVSPost2010Prop44ColorRGB
 90
      255
102
RTVSPost2010PropOp44
 70
     1
102
RTVSPost2010Prop45
280
     0
102
RTVSPost2010PropOp45
 70
     1
102
RTVSPost2010Prop46
 90
       50
102
RTVSPost2010PropOp46
 70
     1
102
RTVSPost2010Prop47
 90
       50
102
RTVSPost2010PropOp47
 70
     1
102
RTVSPost2010Prop48
 90
       50
102
RTVSPost2010PropOp48
 70
     1
102
RTVSPost2010Prop49
280
     0
102
RTVSPost2010PropOp49
 70
     1
102
RTVSPost2010Prop50
 90
       50
102
RTVSPost2010PropOp50
 70
     1
102
RTVSPost2010Prop51ColorIndex
 90
      256
102
RTVSPost2010Prop51ColorRGB
 90
-16777216
102
RTVSPost2010PropOp51
 70
     0
102
RTVSPost2010Prop52
140
1.0
102
RTVSPost2010PropOp52
 70
     0
102
RTVSPost2010Prop53
 90
        2
102
RTVSPost2010PropOp53
 70
     1
102
RTVSPost2010Prop54
  1
strokes_ogs.tif
102
RTVSPost2010PropOp54
 70
     1
102
RTVSPost2010Prop55
280
     0
102
RTVSPost2010PropOp55
 70
     1
102
RTVSPost2010Prop56
140
1.0
102
RTVSPost2010PropOp56
 70
     1
102
RTVSPost2010Prop57
140
1.0
102
RTVSPost2010PropOp57
 70
     1
  0
XRECORD
  5
F4
102
{ACAD_REACTORS
330
F3
102
}
330
F3
100
AcDbXrecord
280
     1
102
RTVSPropertyOp0
 70
     1
102
RTVSPropertyOp1
 70
     1
102
RTVSPropertyOp2
 70
     1
102
RTVSPropertyOp3
 70
     1
102
RTVSPropertyOp4
 70
     1
102
RTVSPropertyOp5
 70
     1
102
RTVSPropertyOp6
 70
     1
102
RTVSPropertyOp7
 70
     1
102
RTVSPropertyOp8
 70
     1
102
RTVSPropertyOp9
 70
     1
102
RTVSPropertyOp10
 70
     1
102
RTVSPropertyOp11
 70
     1
102
RTVSPropertyOp12
 70
     1
102
RTVSPropertyOp13
 70
     1
102
RTVSPropertyOp14
 70
     1
102
RTVSPropertyOp15
 70
     1
102
RTVSPropertyOp16
 70
     1
102
RTVSPropertyOp17
 70
     1
102
RTVSPropertyOp18
 70
     1
102
RTVSPropertyOp19
 70
     1
102
RTVSPropertyOp20
 70
     1
102
RTVSPropertyOp21
 70
     1
102
RTVSPropertyOp22
 70
     1
102
RTVSPropertyOp23
 70
     1
102
RTVSPropertyOp24
 70
     1
102
RTVSPropertyOp25
 70
     1
102
RTVSPropertyOp26
 70
     1
102
RTVSPropertyOp27
 70
     1
102
RTVSPropertyOp28
 70
     1
102
RTVSPropertyOp29
 70
     1
102
RTVSPropertyOp30
 70
     1
102
RTVSPropertyOp31
 70
     1
102
RTVSPropertyOp32
 70
     1
102
RTVSPropertyOp33
 70
     1
102
RTVSPropertyOp34
 70
     1
102
RTVSPropertyOp35
 70
     1
102
RTVSPropertyOp36
 70
     1
102
RTVSPropertyOp37
 70
     1
102
RTVSPropertyOp38
 70
     1
102
RTVSPropertyOp39
 70
     1
102
RTVSPropertyOp40
 70
     1
102
RTVSPropertyOp41
 70
     1
102
RTVSPropertyOp42
 70
     1
102
RTVSPropertyOp43
 70
     1
102
RTVSPropertyOp44
 70
     1
102
RTVSPropertyOp45
 70
     1
102
RTVSPropertyOp46
 70
     1
102
RTVSPropertyOp47
 70
     1
102
RTVSPropertyOp48
 70
     1
102
RTVSPropertyOp49
 70
     1
102
RTVSPropertyOp50
 70
     1
102
RTVSPropertyOp51
 70
     0
102
RTVSPropertyOp52
 70
     0
102
RTVSPropertyOp53
 70
     1
102
RTVSPropertyOp54
 70
     1
102
RTVSPropertyOp55
 70
     1
102
RTVSPropertyOp56
 70
     1
102
RTVSPropertyOp57
 70
     1
102
RTVSPost2010Prop28
280
     0
102
RTVSPost2010PropOp28
 70
     1
102
RTVSPost2010Prop29
280
     1
102
RTVSPost2010PropOp29
 70
     1
102
RTVSPost2010Prop30
280
     1
102
RTVSPost2010PropOp30
 70
     1
102
RTVSPost2010Prop31
280
     0
102
RTVSPost2010PropOp31
 70
     1
102
RTVSPost2010Prop32
280
     0
102
RTVSPost2010PropOp32
 70
     1
102
RTVSPost2010Prop33
280
     0
102
RTVSPost2010PropOp33
 70
     1
102
RTVSPost2010Prop34
280
     0
102
RTVSPost2010PropOp34
 70
     1
102
RTVSPost2010Prop35
280
     0
102
RTVSPost2010PropOp35
 70
     1
102
RTVSPost2010Prop36
280
     0
102
RTVSPost2010PropOp36
 70
     1
102
RTVSPost2010Prop37
 90
       50
102
RTVSPost2010PropOp37
 70
     1
102
RTVSPost2010Prop38
140
0.0
102
RTVSPost2010PropOp38
 70
     1
102
RTVSPost2010Prop39
140
1.0
102
RTVSPost2010PropOp39
 70
     1
102
RTVSPost2010Prop40
 90
        0
102
RTVSPost2010PropOp40
 70
     1
102
RTVSPost2010Prop41ColorIndex
 90
       18
102
RTVSPost2010Prop41ColorRGB
 90
        0
102
RTVSPost2010PropOp41
 70
     1
102
RTVSPost2010Prop42
 90
       50
102
RTVSPost2010PropOp42
 70
     1
102
RTVSPost2010Prop43
 90
        3
102
RTVSPost2010PropOp43
 70
     1
102
RTVSPost2010Prop44ColorIndex
 90
        5
102
RTVSPost2010Prop44ColorRGB
 90
      255
102
RTVSPost2010PropOp44
 70
     1
102
RTVSPost2010Prop45
280
     0
102
RTVSPost2010PropOp45
 70
     1
102
RTVSPost2010Prop46
 90
       50
102
RTVSPost2010PropOp46
 70
     1
102
RTVSPost2010Prop47
 90
       50
102
RTVSPost2010PropOp47
 70
     1
102
RTVSPost2010Prop48
 90
       50
102
RTVSPost2010PropOp48
 70
     1
102
RTVSPost2010Prop49
280
     0
102
RTVSPost2010PropOp49
 70
     1
102
RTVSPost2010Prop50
 90
       50
102
RTVSPost2010PropOp50
 70
     1
102
RTVSPost2010Prop51ColorIndex
 90
      256
102
RTVSPost2010Prop51ColorRGB
 90
-16777216
102
RTVSPost2010PropOp51
 70
     0
102
RTVSPost2010Prop52
140
1.0
102
RTVSPost2010PropOp52
 70
     0
102
RTVSPost2010Prop53
 90
        2
102
RTVSPost2010PropOp53
 70
     1
102
RTVSPost2010Prop54
  1
strokes_ogs.tif
102
RTVSPost2010PropOp54
 70
     1
102
RTVSPost2010Prop55
280
     0
102
RTVSPost2010PropOp55
 70
     1
102
RTVSPost2010Prop56
140
1.0
102
RTVSPost2010PropOp56
 70
     1
102
RTVSPost2010Prop57
140
1.0
102
RTVSPost2010PropOp57
 70
     1
  0
XRECORD
  5
F6
102
{ACAD_REACTORS
330
F5
102
}
330
F5
100
AcDbXrecord
280
     1
102
RTVSPropertyOp0
 70
     1
102
RTVSPropertyOp1
 70
     1
102
RTVSPropertyOp2
 70
     1
102
RTVSPropertyOp3
 70
     1
102
RTVSPropertyOp4
 70
     1
102
RTVSPropertyOp5
 70
     1
102
RTVSPropertyOp6
 70
     1
102
RTVSPropertyOp7
 70
     1
102
RTVSPropertyOp8
 70
     1
102
RTVSPropertyOp9
 70
     1
102
RTVSPropertyOp10
 70
     1
102
RTVSPropertyOp11
 70
     1
102
RTVSPropertyOp12
 70
     1
102
RTVSPropertyOp13
 70
     1
102
RTVSPropertyOp14
 70
     1
102
RTVSPropertyOp15
 70
     1
102
RTVSPropertyOp16
 70
     1
102
RTVSPropertyOp17
 70
     1
102
RTVSPropertyOp18
 70
     1
102
RTVSPropertyOp19
 70
     1
102
RTVSPropertyOp20
 70
     1
102
RTVSPropertyOp21
 70
     1
102
RTVSPropertyOp22
 70
     1
102
RTVSPropertyOp23
 70
     1
102
RTVSPropertyOp24
 70
     1
102
RTVSPropertyOp25
 70
     1
102
RTVSPropertyOp26
 70
     1
102
RTVSPropertyOp27
 70
     1
102
RTVSPropertyOp28
 70
     1
102
RTVSPropertyOp29
 70
     1
102
RTVSPropertyOp30
 70
     1
102
RTVSPropertyOp31
 70
     1
102
RTVSPropertyOp32
 70
     1
102
RTVSPropertyOp33
 70
     1
102
RTVSPropertyOp34
 70
     1
102
RTVSPropertyOp35
 70
     1
102
RTVSPropertyOp36
 70
     1
102
RTVSPropertyOp37
 70
     1
102
RTVSPropertyOp38
 70
     1
102
RTVSPropertyOp39
 70
     1
102
RTVSPropertyOp40
 70
     1
102
RTVSPropertyOp41
 70
     1
102
RTVSPropertyOp42
 70
     1
102
RTVSPropertyOp43
 70
     1
102
RTVSPropertyOp44
 70
     1
102
RTVSPropertyOp45
 70
     1
102
RTVSPropertyOp46
 70
     1
102
RTVSPropertyOp47
 70
     1
102
RTVSPropertyOp48
 70
     1
102
RTVSPropertyOp49
 70
     1
102
RTVSPropertyOp50
 70
     1
102
RTVSPropertyOp51
 70
     0
102
RTVSPropertyOp52
 70
     0
102
RTVSPropertyOp53
 70
     1
102
RTVSPropertyOp54
 70
     1
102
RTVSPropertyOp55
 70
     1
102
RTVSPropertyOp56
 70
     1
102
RTVSPropertyOp57
 70
     1
102
RTVSPost2010Prop28
280
     0
102
RTVSPost2010PropOp28
 70
     1
102
RTVSPost2010Prop29
280
     1
102
RTVSPost2010PropOp29
 70
     1
102
RTVSPost2010Prop30
280
     1
102
RTVSPost2010PropOp30
 70
     1
102
RTVSPost2010Prop31
280
     0
102
RTVSPost2010PropOp31
 70
     1
102
RTVSPost2010Prop32
280
     0
102
RTVSPost2010PropOp32
 70
     1
102
RTVSPost2010Prop33
280
     0
102
RTVSPost2010PropOp33
 70
     1
102
RTVSPost2010Prop34
280
     0
102
RTVSPost2010PropOp34
 70
     1
102
RTVSPost2010Prop35
280
     0
102
RTVSPost2010PropOp35
 70
     1
102
RTVSPost2010Prop36
280
     0
102
RTVSPost2010PropOp36
 70
     1
102
RTVSPost2010Prop37
 90
       50
102
RTVSPost2010PropOp37
 70
     1
102
RTVSPost2010Prop38
140
0.0
102
RTVSPost2010PropOp38
 70
     1
102
RTVSPost2010Prop39
140
1.0
102
RTVSPost2010PropOp39
 70
     1
102
RTVSPost2010Prop40
 90
        0
102
RTVSPost2010PropOp40
 70
     1
102
RTVSPost2010Prop41ColorIndex
 90
       18
102
RTVSPost2010Prop41ColorRGB
 90
        0
102
RTVSPost2010PropOp41
 70
     1
102
RTVSPost2010Prop42
 90
       50
102
RTVSPost2010PropOp42
 70
     1
102
RTVSPost2010Prop43
 90
        3
102
RTVSPost2010PropOp43
 70
     1
102
RTVSPost2010Prop44ColorIndex
 90
        5
102
RTVSPost2010Prop44ColorRGB
 90
      255
102
RTVSPost2010PropOp44
 70
     1
102
RTVSPost2010Prop45
280
     0
102
RTVSPost2010PropOp45
 70
     1
102
RTVSPost2010Prop46
 90
       50
102
RTVSPost2010PropOp46
 70
     1
102
RTVSPost2010Prop47
 90
       50
102
RTVSPost2010PropOp47
 70
     1
102
RTVSPost2010Prop48
 90
       50
102
RTVSPost2010PropOp48
 70
     1
102
RTVSPost2010Prop49
280
     0
102
RTVSPost2010PropOp49
 70
     1
102
RTVSPost2010Prop50
 90
       50
102
RTVSPost2010PropOp50
 70
     1
102
RTVSPost2010Prop51ColorIndex
 90
      256
102
RTVSPost2010Prop51ColorRGB
 90
-16777216
102
RTVSPost2010PropOp51
 70
     0
102
RTVSPost2010Prop52
140
1.0
102
RTVSPost2010PropOp52
 70
     0
102
RTVSPost2010Prop53
 90
        2
102
RTVSPost2010PropOp53
 70
     1
102
RTVSPost2010Prop54
  1
strokes_ogs.tif
102
RTVSPost2010PropOp54
 70
     1
102
RTVSPost2010Prop55
280
     0
102
RTVSPost2010PropOp55
 70
     1
102
RTVSPost2010Prop56
140
1.0
102
RTVSPost2010PropOp56
 70
     1
102
RTVSPost2010Prop57
140
1.0
102
RTVSPost2010PropOp57
 70
     1
  0
XRECORD
  5
FC
102
{ACAD_REACTORS
330
FB
102
}
330
FB
100
AcDbXrecord
280
     1
102
RTVSPropertyOp0
 70
     1
102
RTVSPropertyOp1
 70
     1
102
RTVSPropertyOp2
 70
     1
102
RTVSPropertyOp3
 70
     1
102
RTVSPropertyOp4
 70
     1
102
RTVSPropertyOp5
 70
     1
102
RTVSPropertyOp6
 70
     1
102
RTVSPropertyOp7
 70
     1
102
RTVSPropertyOp8
 70
     1
102
RTVSPropertyOp9
 70
     1
102
RTVSPropertyOp10
 70
     1
102
RTVSPropertyOp11
 70
     1
102
RTVSPropertyOp12
 70
     1
102
RTVSPropertyOp13
 70
     1
102
RTVSPropertyOp14
 70
     1
102
RTVSPropertyOp15
 70
     1
102
RTVSPropertyOp16
 70
     1
102
RTVSPropertyOp17
 70
     1
102
RTVSPropertyOp18
 70
     1
102
RTVSPropertyOp19
 70
     1
102
RTVSPropertyOp20
 70
     1
102
RTVSPropertyOp21
 70
     1
102
RTVSPropertyOp22
 70
     1
102
RTVSPropertyOp23
 70
     1
102
RTVSPropertyOp24
 70
     1
102
RTVSPropertyOp25
 70
     1
102
RTVSPropertyOp26
 70
     1
102
RTVSPropertyOp27
 70
     1
102
RTVSPropertyOp28
 70
     1
102
RTVSPropertyOp29
 70
     1
102
RTVSPropertyOp30
 70
     1
102
RTVSPropertyOp31
 70
     1
102
RTVSPropertyOp32
 70
     1
102
RTVSPropertyOp33
 70
     1
102
RTVSPropertyOp34
 70
     1
102
RTVSPropertyOp35
 70
     1
102
RTVSPropertyOp36
 70
     1
102
RTVSPropertyOp37
 70
     1
102
RTVSPropertyOp38
 70
     1
102
RTVSPropertyOp39
 70
     1
102
RTVSPropertyOp40
 70
     1
102
RTVSPropertyOp41
 70
     1
102
RTVSPropertyOp42
 70
     1
102
RTVSPropertyOp43
 70
     1
102
RTVSPropertyOp44
 70
     1
102
RTVSPropertyOp45
 70
     1
102
RTVSPropertyOp46
 70
     1
102
RTVSPropertyOp47
 70
     1
102
RTVSPropertyOp48
 70
     1
102
RTVSPropertyOp49
 70
     1
102
RTVSPropertyOp50
 70
     1
102
RTVSPropertyOp51
 70
     0
102
RTVSPropertyOp52
 70
     0
102
RTVSPropertyOp53
 70
     1
102
RTVSPropertyOp54
 70
     1
102
RTVSPropertyOp55
 70
     1
102
RTVSPropertyOp56
 70
     1
102
RTVSPropertyOp57
 70
     1
102
RTVSPost2010Prop28
280
     0
102
RTVSPost2010PropOp28
 70
     1
102
RTVSPost2010Prop29
280
     1
102
RTVSPost2010PropOp29
 70
     1
102
RTVSPost2010Prop30
280
     1
102
RTVSPost2010PropOp30
 70
     1
102
RTVSPost2010Prop31
280
     0
102
RTVSPost2010PropOp31
 70
     1
102
RTVSPost2010Prop32
280
     0
102
RTVSPost2010PropOp32
 70
     1
102
RTVSPost2010Prop33
280
     0
102
RTVSPost2010PropOp33
 70
     1
102
RTVSPost2010Prop34
280
     0
102
RTVSPost2010PropOp34
 70
     1
102
RTVSPost2010Prop35
280
     0
102
RTVSPost2010PropOp35
 70
     1
102
RTVSPost2010Prop36
280
     0
102
RTVSPost2010PropOp36
 70
     1
102
RTVSPost2010Prop37
 90
       50
102
RTVSPost2010PropOp37
 70
     1
102
RTVSPost2010Prop38
140
0.0
102
RTVSPost2010PropOp38
 70
     1
102
RTVSPost2010Prop39
140
1.0
102
RTVSPost2010PropOp39
 70
     1
102
RTVSPost2010Prop40
 90
        0
102
RTVSPost2010PropOp40
 70
     1
102
RTVSPost2010Prop41ColorIndex
 90
       18
102
RTVSPost2010Prop41ColorRGB
 90
        0
102
RTVSPost2010PropOp41
 70
     1
102
RTVSPost2010Prop42
 90
       50
102
RTVSPost2010PropOp42
 70
     1
102
RTVSPost2010Prop43
 90
        3
102
RTVSPost2010PropOp43
 70
     1
102
RTVSPost2010Prop44ColorIndex
 90
        5
102
RTVSPost2010Prop44ColorRGB
 90
      255
102
RTVSPost2010PropOp44
 70
     1
102
RTVSPost2010Prop45
280
     0
102
RTVSPost2010PropOp45
 70
     1
102
RTVSPost2010Prop46
 90
       50
102
RTVSPost2010PropOp46
 70
     1
102
RTVSPost2010Prop47
 90
       50
102
RTVSPost2010PropOp47
 70
     1
102
RTVSPost2010Prop48
 90
       50
102
RTVSPost2010PropOp48
 70
     1
102
RTVSPost2010Prop49
280
     0
102
RTVSPost2010PropOp49
 70
     1
102
RTVSPost2010Prop50
 90
       50
102
RTVSPost2010PropOp50
 70
     1
102
RTVSPost2010Prop51ColorIndex
 90
      256
102
RTVSPost2010Prop51ColorRGB
 90
-16777216
102
RTVSPost2010PropOp51
 70
     0
102
RTVSPost2010Prop52
140
1.0
102
RTVSPost2010PropOp52
 70
     0
102
RTVSPost2010Prop53
 90
        2
102
RTVSPost2010PropOp53
 70
     1
102
RTVSPost2010Prop54
  1
strokes_ogs.tif
102
RTVSPost2010PropOp54
 70
     1
102
RTVSPost2010Prop55
280
     0
102
RTVSPost2010PropOp55
 70
     1
102
RTVSPost2010Prop56
140
1.0
102
RTVSPost2010PropOp56
 70
     1
102
RTVSPost2010Prop57
140
1.0
102
RTVSPost2010PropOp57
 70
     1
  0
XRECORD
  5
110
102
{ACAD_REACTORS
330
10F
102
}
330
10F
100
AcDbXrecord
280
     1
102
RTVSPropertyOp0
 70
     0
102
RTVSPropertyOp1
 70
     0
102
RTVSPropertyOp2
 70
     0
102
RTVSPropertyOp3
 70
     0
102
RTVSPropertyOp4
 70
     0
102
RTVSPropertyOp5
 70
     0
102
RTVSPropertyOp6
 70
     0
102
RTVSPropertyOp7
 70
     0
102
RTVSPropertyOp8
 70
     0
102
RTVSPropertyOp9
 70
     0
102
RTVSPropertyOp10
 70
     0
102
RTVSPropertyOp11
 70
     0
102
RTVSPropertyOp12
 70
     0
102
RTVSPropertyOp13
 70
     0
102
RTVSPropertyOp14
 70
     2
102
RTVSPropertyOp15
 70
     0
102
RTVSPropertyOp16
 70
     0
102
RTVSPropertyOp17
 70
     0
102
RTVSPropertyOp18
 70
     0
102
RTVSPropertyOp19
 70
     0
102
RTVSPropertyOp20
 70
     0
102
RTVSPropertyOp21
 70
     0
102
RTVSPropertyOp22
 70
     0
102
RTVSPropertyOp23
 70
     0
102
RTVSPropertyOp24
 70
     0
102
RTVSPropertyOp25
 70
     0
102
RTVSPropertyOp26
 70
     0
102
RTVSPropertyOp27
 70
     0
102
RTVSPropertyOp28
 70
     0
102
RTVSPropertyOp29
 70
     0
102
RTVSPropertyOp30
 70
     0
102
RTVSPropertyOp31
 70
     0
102
RTVSPropertyOp32
 70
     0
102
RTVSPropertyOp33
 70
     0
102
RTVSPropertyOp34
 70
     0
102
RTVSPropertyOp35
 70
     0
102
RTVSPropertyOp36
 70
     0
102
RTVSPropertyOp37
 70
     0
102
RTVSPropertyOp38
 70
     0
102
RTVSPropertyOp39
 70
     0
102
RTVSPropertyOp40
 70
     0
102
RTVSPropertyOp41
 70
     0
102
RTVSPropertyOp42
 70
     0
102
RTVSPropertyOp43
 70
     0
102
RTVSPropertyOp44
 70
     0
102
RTVSPropertyOp45
 70
     0
102
RTVSPropertyOp46
 70
     0
102
RTVSPropertyOp47
 70
     0
102
RTVSPropertyOp48
 70
     0
102
RTVSPropertyOp49
 70
     0
102
RTVSPropertyOp50
 70
     0
102
RTVSPropertyOp51
 70
     0
102
RTVSPropertyOp52
 70
     0
102
RTVSPropertyOp53
 70
     0
102
RTVSPropertyOp54
 70
     0
102
RTVSPropertyOp55
 70
     0
102
RTVSPropertyOp56
 70
     0
102
RTVSPropertyOp57
 70
     0
102
RTVSPost2010Prop28
280
     0
102
RTVSPost2010PropOp28
 70
     0
102
RTVSPost2010Prop29
280
     1
102
RTVSPost2010PropOp29
 70
     0
102
RTVSPost2010Prop30
280
     1
102
RTVSPost2010PropOp30
 70
     0
102
RTVSPost2010Prop31
280
     0
102
RTVSPost2010PropOp31
 70
     0
102
RTVSPost2010Prop32
280
     0
102
RTVSPost2010PropOp32
 70
     0
102
RTVSPost2010Prop33
280
     0
102
RTVSPost2010PropOp33
 70
     0
102
RTVSPost2010Prop34
280
     0
102
RTVSPost2010PropOp34
 70
     0
102
RTVSPost2010Prop35
280
     0
102
RTVSPost2010PropOp35
 70
     0
102
RTVSPost2010Prop36
280
     0
102
RTVSPost2010PropOp36
 70
     0
102
RTVSPost2010Prop37
 90
       50
102
RTVSPost2010PropOp37
 70
     0
102
RTVSPost2010Prop38
140
0.0
102
RTVSPost2010PropOp38
 70
     0
102
RTVSPost2010Prop39
140
1.0
102
RTVSPost2010PropOp39
 70
     0
102
RTVSPost2010Prop40
 90
        0
102
RTVSPost2010PropOp40
 70
     0
102
RTVSPost2010Prop41ColorIndex
 90
       18
102
RTVSPost2010Prop41ColorRGB
 90
        0
102
RTVSPost2010PropOp41
 70
     0
102
RTVSPost2010Prop42
 90
       50
102
RTVSPost2010PropOp42
 70
     0
102
RTVSPost2010Prop43
 90
        3
102
RTVSPost2010PropOp43
 70
     0
102
RTVSPost2010Prop44ColorIndex
 90
        5
102
RTVSPost2010Prop44ColorRGB
 90
      255
102
RTVSPost2010PropOp44
 70
     0
102
RTVSPost2010Prop45
280
     0
102
RTVSPost2010PropOp45
 70
     0
102
RTVSPost2010Prop46
 90
       50
102
RTVSPost2010PropOp46
 70
     0
102
RTVSPost2010Prop47
 90
       50
102
RTVSPost2010PropOp47
 70
     0
102
RTVSPost2010Prop48
 90
       50
102
RTVSPost2010PropOp48
 70
     0
102
RTVSPost2010Prop49
280
     0
102
RTVSPost2010PropOp49
 70
     0
102
RTVSPost2010Prop50
 90
       50
102
RTVSPost2010PropOp50
 70
     0
102
RTVSPost2010Prop51ColorIndex
 90
      256
102
RTVSPost2010Prop51ColorRGB
 90
-16777216
102
RTVSPost2010PropOp51
 70
     0
102
RTVSPost2010Prop52
140
1.0
102
RTVSPost2010PropOp52
 70
     0
102
RTVSPost2010Prop53
 90
        2
102
RTVSPost2010PropOp53
 70
     0
102
RTVSPost2010Prop54
  1
strokes_ogs.tif
102
RTVSPost2010PropOp54
 70
     0
102
RTVSPost2010Prop55
280
     0
102
RTVSPost2010PropOp55
 70
     0
102
RTVSPost2010Prop56
140
1.0
102
RTVSPost2010PropOp56
 70
     0
102
RTVSPost2010Prop57
140
1.0
102
RTVSPost2010PropOp57
 70
     0
  0
XRECORD
  5
10A
102
{ACAD_REACTORS
330
109
102
}
330
109
100
AcDbXrecord
280
     1
102
RTVSPropertyOp0
 70
     1
102
RTVSPropertyOp1
 70
     1
102
RTVSPropertyOp2
 70
     1
102
RTVSPropertyOp3
 70
     1
102
RTVSPropertyOp4
 70
     1
102
RTVSPropertyOp5
 70
     1
102
RTVSPropertyOp6
 70
     1
102
RTVSPropertyOp7
 70
     1
102
RTVSPropertyOp8
 70
     1
102
RTVSPropertyOp9
 70
     1
102
RTVSPropertyOp10
 70
     1
102
RTVSPropertyOp11
 70
     1
102
RTVSPropertyOp12
 70
     1
102
RTVSPropertyOp13
 70
     1
102
RTVSPropertyOp14
 70
     1
102
RTVSPropertyOp15
 70
     1
102
RTVSPropertyOp16
 70
     1
102
RTVSPropertyOp17
 70
     1
102
RTVSPropertyOp18
 70
     1
102
RTVSPropertyOp19
 70
     1
102
RTVSPropertyOp20
 70
     1
102
RTVSPropertyOp21
 70
     1
102
RTVSPropertyOp22
 70
     1
102
RTVSPropertyOp23
 70
     1
102
RTVSPropertyOp24
 70
     1
102
RTVSPropertyOp25
 70
     1
102
RTVSPropertyOp26
 70
     1
102
RTVSPropertyOp27
 70
     1
102
RTVSPropertyOp28
 70
     1
102
RTVSPropertyOp29
 70
     1
102
RTVSPropertyOp30
 70
     1
102
RTVSPropertyOp31
 70
     1
102
RTVSPropertyOp32
 70
     1
102
RTVSPropertyOp33
 70
     1
102
RTVSPropertyOp34
 70
     1
102
RTVSPropertyOp35
 70
     1
102
RTVSPropertyOp36
 70
     1
102
RTVSPropertyOp37
 70
     1
102
RTVSPropertyOp38
 70
     1
102
RTVSPropertyOp39
 70
     1
102
RTVSPropertyOp40
 70
     1
102
RTVSPropertyOp41
 70
     1
102
RTVSPropertyOp42
 70
     1
102
RTVSPropertyOp43
 70
     1
102
RTVSPropertyOp44
 70
     1
102
RTVSPropertyOp45
 70
     1
102
RTVSPropertyOp46
 70
     1
102
RTVSPropertyOp47
 70
     1
102
RTVSPropertyOp48
 70
     1
102
RTVSPropertyOp49
 70
     1
102
RTVSPropertyOp50
 70
     1
102
RTVSPropertyOp51
 70
     0
102
RTVSPropertyOp52
 70
     0
102
RTVSPropertyOp53
 70
     1
102
RTVSPropertyOp54
 70
     1
102
RTVSPropertyOp55
 70
     1
102
RTVSPropertyOp56
 70
     1
102
RTVSPropertyOp57
 70
     1
102
RTVSPost2010Prop28
280
     0
102
RTVSPost2010PropOp28
 70
     1
102
RTVSPost2010Prop29
280
     1
102
RTVSPost2010PropOp29
 70
     1
102
RTVSPost2010Prop30
280
     1
102
RTVSPost2010PropOp30
 70
     1
102
RTVSPost2010Prop31
280
     0
102
RTVSPost2010PropOp31
 70
     1
102
RTVSPost2010Prop32
280
     0
102
RTVSPost2010PropOp32
 70
     1
102
RTVSPost2010Prop33
280
     0
102
RTVSPost2010PropOp33
 70
     1
102
RTVSPost2010Prop34
280
     0
102
RTVSPost2010PropOp34
 70
     1
102
RTVSPost2010Prop35
280
     0
102
RTVSPost2010PropOp35
 70
     1
102
RTVSPost2010Prop36
280
     0
102
RTVSPost2010PropOp36
 70
     1
102
RTVSPost2010Prop37
 90
       50
102
RTVSPost2010PropOp37
 70
     1
102
RTVSPost2010Prop38
140
0.0
102
RTVSPost2010PropOp38
 70
     1
102
RTVSPost2010Prop39
140
1.0
102
RTVSPost2010PropOp39
 70
     1
102
RTVSPost2010Prop40
 90
        0
102
RTVSPost2010PropOp40
 70
     1
102
RTVSPost2010Prop41ColorIndex
 90
       18
102
RTVSPost2010Prop41ColorRGB
 90
        0
102
RTVSPost2010PropOp41
 70
     1
102
RTVSPost2010Prop42
 90
       50
102
RTVSPost2010PropOp42
 70
     1
102
RTVSPost2010Prop43
 90
        3
102
RTVSPost2010PropOp43
 70
     1
102
RTVSPost2010Prop44ColorIndex
 90
        5
102
RTVSPost2010Prop44ColorRGB
 90
      255
102
RTVSPost2010PropOp44
 70
     1
102
RTVSPost2010Prop45
280
     0
102
RTVSPost2010PropOp45
 70
     1
102
RTVSPost2010Prop46
 90
       50
102
RTVSPost2010PropOp46
 70
     1
102
RTVSPost2010Prop47
 90
       50
102
RTVSPost2010PropOp47
 70
     1
102
RTVSPost2010Prop48
 90
       50
102
RTVSPost2010PropOp48
 70
     1
102
RTVSPost2010Prop49
280
     0
102
RTVSPost2010PropOp49
 70
     1
102
RTVSPost2010Prop50
 90
       50
102
RTVSPost2010PropOp50
 70
     1
102
RTVSPost2010Prop51ColorIndex
 90
      256
102
RTVSPost2010Prop51ColorRGB
 90
-16777216
102
RTVSPost2010PropOp51
 70
     0
102
RTVSPost2010Prop52
140
1.0
102
RTVSPost2010PropOp52
 70
     0
102
RTVSPost2010Prop53
 90
        2
102
RTVSPost2010PropOp53
 70
     1
102
RTVSPost2010Prop54
  1
strokes_ogs.tif
102
RTVSPost2010PropOp54
 70
     1
102
RTVSPost2010Prop55
280
     0
102
RTVSPost2010PropOp55
 70
     1
102
RTVSPost2010Prop56
140
1.0
102
RTVSPost2010PropOp56
 70
     1
102
RTVSPost2010Prop57
140
1.0
102
RTVSPost2010PropOp57
 70
     1
  0
XRECORD
  5
112
102
{ACAD_REACTORS
330
111
102
}
330
111
100
AcDbXrecord
280
     1
102
RTVSPropertyOp0
 70
     0
102
RTVSPropertyOp1
 70
     0
102
RTVSPropertyOp2
 70
     0
102
RTVSPropertyOp3
 70
     0
102
RTVSPropertyOp4
 70
     0
102
RTVSPropertyOp5
 70
     0
102
RTVSPropertyOp6
 70
     0
102
RTVSPropertyOp7
 70
     0
102
RTVSPropertyOp8
 70
     0
102
RTVSPropertyOp9
 70
     0
102
RTVSPropertyOp10
 70
     0
102
RTVSPropertyOp11
 70
     0
102
RTVSPropertyOp12
 70
     0
102
RTVSPropertyOp13
 70
     0
102
RTVSPropertyOp14
 70
     2
102
RTVSPropertyOp15
 70
     0
102
RTVSPropertyOp16
 70
     0
102
RTVSPropertyOp17
 70
     0
102
RTVSPropertyOp18
 70
     0
102
RTVSPropertyOp19
 70
     0
102
RTVSPropertyOp20
 70
     0
102
RTVSPropertyOp21
 70
     0
102
RTVSPropertyOp22
 70
     0
102
RTVSPropertyOp23
 70
     0
102
RTVSPropertyOp24
 70
     0
102
RTVSPropertyOp25
 70
     0
102
RTVSPropertyOp26
 70
     0
102
RTVSPropertyOp27
 70
     0
102
RTVSPropertyOp28
 70
     0
102
RTVSPropertyOp29
 70
     0
102
RTVSPropertyOp30
 70
     0
102
RTVSPropertyOp31
 70
     0
102
RTVSPropertyOp32
 70
     0
102
RTVSPropertyOp33
 70
     0
102
RTVSPropertyOp34
 70
     0
102
RTVSPropertyOp35
 70
     0
102
RTVSPropertyOp36
 70
     0
102
RTVSPropertyOp37
 70
     0
102
RTVSPropertyOp38
 70
     0
102
RTVSPropertyOp39
 70
     0
102
RTVSPropertyOp40
 70
     0
102
RTVSPropertyOp41
 70
     0
102
RTVSPropertyOp42
 70
     0
102
RTVSPropertyOp43
 70
     0
102
RTVSPropertyOp44
 70
     0
102
RTVSPropertyOp45
 70
     0
102
RTVSPropertyOp46
 70
     0
102
RTVSPropertyOp47
 70
     0
102
RTVSPropertyOp48
 70
     0
102
RTVSPropertyOp49
 70
     0
102
RTVSPropertyOp50
 70
     0
102
RTVSPropertyOp51
 70
     0
102
RTVSPropertyOp52
 70
     0
102
RTVSPropertyOp53
 70
     0
102
RTVSPropertyOp54
 70
     0
102
RTVSPropertyOp55
 70
     0
102
RTVSPropertyOp56
 70
     0
102
RTVSPropertyOp57
 70
     0
102
RTVSPost2010Prop28
280
     0
102
RTVSPost2010PropOp28
 70
     0
102
RTVSPost2010Prop29
280
     1
102
RTVSPost2010PropOp29
 70
     0
102
RTVSPost2010Prop30
280
     1
102
RTVSPost2010PropOp30
 70
     0
102
RTVSPost2010Prop31
280
     0
102
RTVSPost2010PropOp31
 70
     0
102
RTVSPost2010Prop32
280
     0
102
RTVSPost2010PropOp32
 70
     0
102
RTVSPost2010Prop33
280
     0
102
RTVSPost2010PropOp33
 70
     0
102
RTVSPost2010Prop34
280
     0
102
RTVSPost2010PropOp34
 70
     0
102
RTVSPost2010Prop35
280
     0
102
RTVSPost2010PropOp35
 70
     0
102
RTVSPost2010Prop36
280
     0
102
RTVSPost2010PropOp36
 70
     0
102
RTVSPost2010Prop37
 90
       50
102
RTVSPost2010PropOp37
 70
     0
102
RTVSPost2010Prop38
140
0.0
102
RTVSPost2010PropOp38
 70
     0
102
RTVSPost2010Prop39
140
1.0
102
RTVSPost2010PropOp39
 70
     0
102
RTVSPost2010Prop40
 90
        0
102
RTVSPost2010PropOp40
 70
     0
102
RTVSPost2010Prop41ColorIndex
 90
       18
102
RTVSPost2010Prop41ColorRGB
 90
        0
102
RTVSPost2010PropOp41
 70
     0
102
RTVSPost2010Prop42
 90
       50
102
RTVSPost2010PropOp42
 70
     0
102
RTVSPost2010Prop43
 90
        3
102
RTVSPost2010PropOp43
 70
     0
102
RTVSPost2010Prop44ColorIndex
 90
        5
102
RTVSPost2010Prop44ColorRGB
 90
      255
102
RTVSPost2010PropOp44
 70
     0
102
RTVSPost2010Prop45
280
     0
102
RTVSPost2010PropOp45
 70
     0
102
RTVSPost2010Prop46
 90
       50
102
RTVSPost2010PropOp46
 70
     0
102
RTVSPost2010Prop47
 90
       50
102
RTVSPost2010PropOp47
 70
     0
102
RTVSPost2010Prop48
 90
       50
102
RTVSPost2010PropOp48
 70
     0
102
RTVSPost2010Prop49
280
     0
102
RTVSPost2010PropOp49
 70
     0
102
RTVSPost2010Prop50
 90
       50
102
RTVSPost2010PropOp50
 70
     0
102
RTVSPost2010Prop51ColorIndex
 90
      256
102
RTVSPost2010Prop51ColorRGB
 90
-16777216
102
RTVSPost2010PropOp51
 70
     0
102
RTVSPost2010Prop52
140
1.0
102
RTVSPost2010PropOp52
 70
     0
102
RTVSPost2010Prop53
 90
        2
102
RTVSPost2010PropOp53
 70
     0
102
RTVSPost2010Prop54
  1
strokes_ogs.tif
102
RTVSPost2010PropOp54
 70
     0
102
RTVSPost2010Prop55
280
     0
102
RTVSPost2010PropOp55
 70
     0
102
RTVSPost2010Prop56
140
1.0
102
RTVSPost2010PropOp56
 70
     0
102
RTVSPost2010Prop57
140
1.0
102
RTVSPost2010PropOp57
 70
     0
  0
XRECORD
  5
100
102
{ACAD_REACTORS
330
FF
102
}
330
FF
100
AcDbXrecord
280
     1
102
RTVSPropertyOp0
 70
     1
102
RTVSPropertyOp1
 70
     1
102
RTVSPropertyOp2
 70
     1
102
RTVSPropertyOp3
 70
     1
102
RTVSPropertyOp4
 70
     1
102
RTVSPropertyOp5
 70
     1
102
RTVSPropertyOp6
 70
     1
102
RTVSPropertyOp7
 70
     1
102
RTVSPropertyOp8
 70
     1
102
RTVSPropertyOp9
 70
     1
102
RTVSPropertyOp10
 70
     1
102
RTVSPropertyOp11
 70
     1
102
RTVSPropertyOp12
 70
     1
102
RTVSPropertyOp13
 70
     1
102
RTVSPropertyOp14
 70
     1
102
RTVSPropertyOp15
 70
     1
102
RTVSPropertyOp16
 70
     1
102
RTVSPropertyOp17
 70
     1
102
RTVSPropertyOp18
 70
     1
102
RTVSPropertyOp19
 70
     1
102
RTVSPropertyOp20
 70
     1
102
RTVSPropertyOp21
 70
     1
102
RTVSPropertyOp22
 70
     1
102
RTVSPropertyOp23
 70
     1
102
RTVSPropertyOp24
 70
     1
102
RTVSPropertyOp25
 70
     1
102
RTVSPropertyOp26
 70
     1
102
RTVSPropertyOp27
 70
     1
102
RTVSPropertyOp28
 70
     1
102
RTVSPropertyOp29
 70
     1
102
RTVSPropertyOp30
 70
     1
102
RTVSPropertyOp31
 70
     1
102
RTVSPropertyOp32
 70
     1
102
RTVSPropertyOp33
 70
     1
102
RTVSPropertyOp34
 70
     1
102
RTVSPropertyOp35
 70
     1
102
RTVSPropertyOp36
 70
     1
102
RTVSPropertyOp37
 70
     1
102
RTVSPropertyOp38
 70
     1
102
RTVSPropertyOp39
 70
     1
102
RTVSPropertyOp40
 70
     1
102
RTVSPropertyOp41
 70
     1
102
RTVSPropertyOp42
 70
     1
102
RTVSPropertyOp43
 70
     1
102
RTVSPropertyOp44
 70
     1
102
RTVSPropertyOp45
 70
     1
102
RTVSPropertyOp46
 70
     1
102
RTVSPropertyOp47
 70
     1
102
RTVSPropertyOp48
 70
     1
102
RTVSPropertyOp49
 70
     1
102
RTVSPropertyOp50
 70
     1
102
RTVSPropertyOp51
 70
     0
102
RTVSPropertyOp52
 70
     0
102
RTVSPropertyOp53
 70
     1
102
RTVSPropertyOp54
 70
     1
102
RTVSPropertyOp55
 70
     1
102
RTVSPropertyOp56
 70
     1
102
RTVSPropertyOp57
 70
     1
102
RTVSPost2010Prop28
280
     0
102
RTVSPost2010PropOp28
 70
     1
102
RTVSPost2010Prop29
280
     1
102
RTVSPost2010PropOp29
 70
     1
102
RTVSPost2010Prop30
280
     1
102
RTVSPost2010PropOp30
 70
     1
102
RTVSPost2010Prop31
280
     0
102
RTVSPost2010PropOp31
 70
     1
102
RTVSPost2010Prop32
280
     0
102
RTVSPost2010PropOp32
 70
     1
102
RTVSPost2010Prop33
280
     0
102
RTVSPost2010PropOp33
 70
     1
102
RTVSPost2010Prop34
280
     0
102
RTVSPost2010PropOp34
 70
     1
102
RTVSPost2010Prop35
280
     0
102
RTVSPost2010PropOp35
 70
     1
102
RTVSPost2010Prop36
280
     0
102
RTVSPost2010PropOp36
 70
     1
102
RTVSPost2010Prop37
 90
       50
102
RTVSPost2010PropOp37
 70
     1
102
RTVSPost2010Prop38
140
0.0
102
RTVSPost2010PropOp38
 70
     1
102
RTVSPost2010Prop39
140
1.0
102
RTVSPost2010PropOp39
 70
     1
102
RTVSPost2010Prop40
 90
        0
102
RTVSPost2010PropOp40
 70
     1
102
RTVSPost2010Prop41ColorIndex
 90
       18
102
RTVSPost2010Prop41ColorRGB
 90
        0
102
RTVSPost2010PropOp41
 70
     1
102
RTVSPost2010Prop42
 90
       50
102
RTVSPost2010PropOp42
 70
     1
102
RTVSPost2010Prop43
 90
        3
102
RTVSPost2010PropOp43
 70
     1
102
RTVSPost2010Prop44ColorIndex
 90
        5
102
RTVSPost2010Prop44ColorRGB
 90
      255
102
RTVSPost2010PropOp44
 70
     1
102
RTVSPost2010Prop45
280
     0
102
RTVSPost2010PropOp45
 70
     1
102
RTVSPost2010Prop46
 90
       50
102
RTVSPost2010PropOp46
 70
     1
102
RTVSPost2010Prop47
 90
       50
102
RTVSPost2010PropOp47
 70
     1
102
RTVSPost2010Prop48
 90
       50
102
RTVSPost2010PropOp48
 70
     1
102
RTVSPost2010Prop49
280
     0
102
RTVSPost2010PropOp49
 70
     1
102
RTVSPost2010Prop50
 90
       50
102
RTVSPost2010PropOp50
 70
     1
102
RTVSPost2010Prop51ColorIndex
 90
      256
102
RTVSPost2010Prop51ColorRGB
 90
-16777216
102
RTVSPost2010PropOp51
 70
     0
102
RTVSPost2010Prop52
140
1.0
102
RTVSPost2010PropOp52
 70
     0
102
RTVSPost2010Prop53
 90
        2
102
RTVSPost2010PropOp53
 70
     1
102
RTVSPost2010Prop54
  1
strokes_ogs.tif
102
RTVSPost2010PropOp54
 70
     1
102
RTVSPost2010Prop55
280
     0
102
RTVSPost2010PropOp55
 70
     1
102
RTVSPost2010Prop56
140
1.0
102
RTVSPost2010PropOp56
 70
     1
102
RTVSPost2010Prop57
140
1.0
102
RTVSPost2010PropOp57
 70
     1
  0
XRECORD
  5
11E
102
{ACAD_REACTORS
330
11D
102
}
330
11D
100
AcDbXrecord
280
     1
102
RTVSPropertyOp0
 70
     1
102
RTVSPropertyOp1
 70
     1
102
RTVSPropertyOp2
 70
     1
102
RTVSPropertyOp3
 70
     1
102
RTVSPropertyOp4
 70
     1
102
RTVSPropertyOp5
 70
     1
102
RTVSPropertyOp6
 70
     1
102
RTVSPropertyOp7
 70
     1
102
RTVSPropertyOp8
 70
     1
102
RTVSPropertyOp9
 70
     1
102
RTVSPropertyOp10
 70
     1
102
RTVSPropertyOp11
 70
     1
102
RTVSPropertyOp12
 70
     1
102
RTVSPropertyOp13
 70
     1
102
RTVSPropertyOp14
 70
     1
102
RTVSPropertyOp15
 70
     1
102
RTVSPropertyOp16
 70
     1
102
RTVSPropertyOp17
 70
     1
102
RTVSPropertyOp18
 70
     1
102
RTVSPropertyOp19
 70
     1
102
RTVSPropertyOp20
 70
     1
102
RTVSPropertyOp21
 70
     1
102
RTVSPropertyOp22
 70
     1
102
RTVSPropertyOp23
 70
     1
102
RTVSPropertyOp24
 70
     1
102
RTVSPropertyOp25
 70
     1
102
RTVSPropertyOp26
 70
     1
102
RTVSPropertyOp27
 70
     1
102
RTVSPropertyOp28
 70
     1
102
RTVSPropertyOp29
 70
     1
102
RTVSPropertyOp30
 70
     1
102
RTVSPropertyOp31
 70
     1
102
RTVSPropertyOp32
 70
     1
102
RTVSPropertyOp33
 70
     1
102
RTVSPropertyOp34
 70
     1
102
RTVSPropertyOp35
 70
     1
102
RTVSPropertyOp36
 70
     1
102
RTVSPropertyOp37
 70
     1
102
RTVSPropertyOp38
 70
     1
102
RTVSPropertyOp39
 70
     1
102
RTVSPropertyOp40
 70
     1
102
RTVSPropertyOp41
 70
     1
102
RTVSPropertyOp42
 70
     1
102
RTVSPropertyOp43
 70
     1
102
RTVSPropertyOp44
 70
     1
102
RTVSPropertyOp45
 70
     1
102
RTVSPropertyOp46
 70
     1
102
RTVSPropertyOp47
 70
     1
102
RTVSPropertyOp48
 70
     1
102
RTVSPropertyOp49
 70
     1
102
RTVSPropertyOp50
 70
     1
102
RTVSPropertyOp51
 70
     0
102
RTVSPropertyOp52
 70
     0
102
RTVSPropertyOp53
 70
     1
102
RTVSPropertyOp54
 70
     1
102
RTVSPropertyOp55
 70
     1
102
RTVSPropertyOp56
 70
     1
102
RTVSPropertyOp57
 70
     1
102
RTVSPost2010Prop28
280
     0
102
RTVSPost2010PropOp28
 70
     1
102
RTVSPost2010Prop29
280
     1
102
RTVSPost2010PropOp29
 70
     1
102
RTVSPost2010Prop30
280
     1
102
RTVSPost2010PropOp30
 70
     1
102
RTVSPost2010Prop31
280
     0
102
RTVSPost2010PropOp31
 70
     1
102
RTVSPost2010Prop32
280
     0
102
RTVSPost2010PropOp32
 70
     1
102
RTVSPost2010Prop33
280
     0
102
RTVSPost2010PropOp33
 70
     1
102
RTVSPost2010Prop34
280
     0
102
RTVSPost2010PropOp34
 70
     1
102
RTVSPost2010Prop35
280
     0
102
RTVSPost2010PropOp35
 70
     1
102
RTVSPost2010Prop36
280
     0
102
RTVSPost2010PropOp36
 70
     1
102
RTVSPost2010Prop37
 90
       50
102
RTVSPost2010PropOp37
 70
     1
102
RTVSPost2010Prop38
140
0.0
102
RTVSPost2010PropOp38
 70
     1
102
RTVSPost2010Prop39
140
1.0
102
RTVSPost2010PropOp39
 70
     1
102
RTVSPost2010Prop40
 90
        0
102
RTVSPost2010PropOp40
 70
     1
102
RTVSPost2010Prop41ColorIndex
 90
       18
102
RTVSPost2010Prop41ColorRGB
 90
        0
102
RTVSPost2010PropOp41
 70
     1
102
RTVSPost2010Prop42
 90
       50
102
RTVSPost2010PropOp42
 70
     1
102
RTVSPost2010Prop43
 90
        3
102
RTVSPost2010PropOp43
 70
     1
102
RTVSPost2010Prop44ColorIndex
 90
        5
102
RTVSPost2010Prop44ColorRGB
 90
      255
102
RTVSPost2010PropOp44
 70
     1
102
RTVSPost2010Prop45
280
     0
102
RTVSPost2010PropOp45
 70
     1
102
RTVSPost2010Prop46
 90
       50
102
RTVSPost2010PropOp46
 70
     1
102
RTVSPost2010Prop47
 90
       50
102
RTVSPost2010PropOp47
 70
     1
102
RTVSPost2010Prop48
 90
       50
102
RTVSPost2010PropOp48
 70
     1
102
RTVSPost2010Prop49
280
     0
102
RTVSPost2010PropOp49
 70
     1
102
RTVSPost2010Prop50
 90
       50
102
RTVSPost2010PropOp50
 70
     1
102
RTVSPost2010Prop51ColorIndex
 90
      256
102
RTVSPost2010Prop51ColorRGB
 90
-16777216
102
RTVSPost2010PropOp51
 70
     0
102
RTVSPost2010Prop52
140
1.0
102
RTVSPost2010PropOp52
 70
     0
102
RTVSPost2010Prop53
 90
        2
102
RTVSPost2010PropOp53
 70
     1
102
RTVSPost2010Prop54
  1
strokes_ogs.tif
102
RTVSPost2010PropOp54
 70
     1
102
RTVSPost2010Prop55
280
     0
102
RTVSPost2010PropOp55
 70
     1
102
RTVSPost2010Prop56
140
1.0
102
RTVSPost2010PropOp56
 70
     1
102
RTVSPost2010Prop57
140
1.0
102
RTVSPost2010PropOp57
 70
     1
  0
XRECORD
  5
11C
102
{ACAD_REACTORS
330
11B
102
}
330
11B
100
AcDbXrecord
280
     1
102
RTVSPropertyOp0
 70
     1
102
RTVSPropertyOp1
 70
     1
102
RTVSPropertyOp2
 70
     1
102
RTVSPropertyOp3
 70
     1
102
RTVSPropertyOp4
 70
     1
102
RTVSPropertyOp5
 70
     1
102
RTVSPropertyOp6
 70
     1
102
RTVSPropertyOp7
 70
     1
102
RTVSPropertyOp8
 70
     1
102
RTVSPropertyOp9
 70
     1
102
RTVSPropertyOp10
 70
     1
102
RTVSPropertyOp11
 70
     1
102
RTVSPropertyOp12
 70
     1
102
RTVSPropertyOp13
 70
     1
102
RTVSPropertyOp14
 70
     1
102
RTVSPropertyOp15
 70
     1
102
RTVSPropertyOp16
 70
     1
102
RTVSPropertyOp17
 70
     1
102
RTVSPropertyOp18
 70
     1
102
RTVSPropertyOp19
 70
     1
102
RTVSPropertyOp20
 70
     1
102
RTVSPropertyOp21
 70
     1
102
RTVSPropertyOp22
 70
     1
102
RTVSPropertyOp23
 70
     1
102
RTVSPropertyOp24
 70
     1
102
RTVSPropertyOp25
 70
     1
102
RTVSPropertyOp26
 70
     1
102
RTVSPropertyOp27
 70
     1
102
RTVSPropertyOp28
 70
     1
102
RTVSPropertyOp29
 70
     1
102
RTVSPropertyOp30
 70
     1
102
RTVSPropertyOp31
 70
     1
102
RTVSPropertyOp32
 70
     1
102
RTVSPropertyOp33
 70
     1
102
RTVSPropertyOp34
 70
     1
102
RTVSPropertyOp35
 70
     1
102
RTVSPropertyOp36
 70
     1
102
RTVSPropertyOp37
 70
     1
102
RTVSPropertyOp38
 70
     1
102
RTVSPropertyOp39
 70
     1
102
RTVSPropertyOp40
 70
     1
102
RTVSPropertyOp41
 70
     1
102
RTVSPropertyOp42
 70
     1
102
RTVSPropertyOp43
 70
     1
102
RTVSPropertyOp44
 70
     1
102
RTVSPropertyOp45
 70
     1
102
RTVSPropertyOp46
 70
     1
102
RTVSPropertyOp47
 70
     1
102
RTVSPropertyOp48
 70
     1
102
RTVSPropertyOp49
 70
     1
102
RTVSPropertyOp50
 70
     1
102
RTVSPropertyOp51
 70
     0
102
RTVSPropertyOp52
 70
     0
102
RTVSPropertyOp53
 70
     1
102
RTVSPropertyOp54
 70
     1
102
RTVSPropertyOp55
 70
     1
102
RTVSPropertyOp56
 70
     1
102
RTVSPropertyOp57
 70
     1
102
RTVSPost2010Prop28
280
     0
102
RTVSPost2010PropOp28
 70
     1
102
RTVSPost2010Prop29
280
     1
102
RTVSPost2010PropOp29
 70
     1
102
RTVSPost2010Prop30
280
     1
102
RTVSPost2010PropOp30
 70
     1
102
RTVSPost2010Prop31
280
     0
102
RTVSPost2010PropOp31
 70
     1
102
RTVSPost2010Prop32
280
     0
102
RTVSPost2010PropOp32
 70
     1
102
RTVSPost2010Prop33
280
     0
102
RTVSPost2010PropOp33
 70
     1
102
RTVSPost2010Prop34
280
     0
102
RTVSPost2010PropOp34
 70
     1
102
RTVSPost2010Prop35
280
     0
102
RTVSPost2010PropOp35
 70
     1
102
RTVSPost2010Prop36
280
     0
102
RTVSPost2010PropOp36
 70
     1
102
RTVSPost2010Prop37
 90
       50
102
RTVSPost2010PropOp37
 70
     1
102
RTVSPost2010Prop38
140
0.0
102
RTVSPost2010PropOp38
 70
     1
102
RTVSPost2010Prop39
140
1.0
102
RTVSPost2010PropOp39
 70
     1
102
RTVSPost2010Prop40
 90
        0
102
RTVSPost2010PropOp40
 70
     1
102
RTVSPost2010Prop41ColorIndex
 90
       18
102
RTVSPost2010Prop41ColorRGB
 90
        0
102
RTVSPost2010PropOp41
 70
     1
102
RTVSPost2010Prop42
 90
       50
102
RTVSPost2010PropOp42
 70
     1
102
RTVSPost2010Prop43
 90
        3
102
RTVSPost2010PropOp43
 70
     1
102
RTVSPost2010Prop44ColorIndex
 90
        5
102
RTVSPost2010Prop44ColorRGB
 90
      255
102
RTVSPost2010PropOp44
 70
     1
102
RTVSPost2010Prop45
280
     0
102
RTVSPost2010PropOp45
 70
     1
102
RTVSPost2010Prop46
 90
       50
102
RTVSPost2010PropOp46
 70
     1
102
RTVSPost2010Prop47
 90
       50
102
RTVSPost2010PropOp47
 70
     1
102
RTVSPost2010Prop48
 90
       50
102
RTVSPost2010PropOp48
 70
     1
102
RTVSPost2010Prop49
280
     0
102
RTVSPost2010PropOp49
 70
     1
102
RTVSPost2010Prop50
 90
       50
102
RTVSPost2010PropOp50
 70
     1
102
RTVSPost2010Prop51ColorIndex
 90
      256
102
RTVSPost2010Prop51ColorRGB
 90
-16777216
102
RTVSPost2010PropOp51
 70
     0
102
RTVSPost2010Prop52
140
1.0
102
RTVSPost2010PropOp52
 70
     0
102
RTVSPost2010Prop53
 90
        2
102
RTVSPost2010PropOp53
 70
     1
102
RTVSPost2010Prop54
  1
strokes_ogs.tif
102
RTVSPost2010PropOp54
 70
     1
102
RTVSPost2010Prop55
280
     0
102
RTVSPost2010PropOp55
 70
     1
102
RTVSPost2010Prop56
140
1.0
102
RTVSPost2010PropOp56
 70
     1
102
RTVSPost2010Prop57
140
1.0
102
RTVSPost2010PropOp57
 70
     1
  0
XRECORD
  5
116
102
{ACAD_REACTORS
330
115
102
}
330
115
100
AcDbXrecord
280
     1
102
RTVSPropertyOp0
 70
     1
102
RTVSPropertyOp1
 70
     1
102
RTVSPropertyOp2
 70
     1
102
RTVSPropertyOp3
 70
     1
102
RTVSPropertyOp4
 70
     1
102
RTVSPropertyOp5
 70
     1
102
RTVSPropertyOp6
 70
     1
102
RTVSPropertyOp7
 70
     1
102
RTVSPropertyOp8
 70
     1
102
RTVSPropertyOp9
 70
     1
102
RTVSPropertyOp10
 70
     1
102
RTVSPropertyOp11
 70
     1
102
RTVSPropertyOp12
 70
     1
102
RTVSPropertyOp13
 70
     1
102
RTVSPropertyOp14
 70
     1
102
RTVSPropertyOp15
 70
     1
102
RTVSPropertyOp16
 70
     1
102
RTVSPropertyOp17
 70
     1
102
RTVSPropertyOp18
 70
     1
102
RTVSPropertyOp19
 70
     1
102
RTVSPropertyOp20
 70
     1
102
RTVSPropertyOp21
 70
     1
102
RTVSPropertyOp22
 70
     1
102
RTVSPropertyOp23
 70
     1
102
RTVSPropertyOp24
 70
     1
102
RTVSPropertyOp25
 70
     1
102
RTVSPropertyOp26
 70
     1
102
RTVSPropertyOp27
 70
     1
102
RTVSPropertyOp28
 70
     1
102
RTVSPropertyOp29
 70
     1
102
RTVSPropertyOp30
 70
     1
102
RTVSPropertyOp31
 70
     1
102
RTVSPropertyOp32
 70
     1
102
RTVSPropertyOp33
 70
     1
102
RTVSPropertyOp34
 70
     1
102
RTVSPropertyOp35
 70
     1
102
RTVSPropertyOp36
 70
     1
102
RTVSPropertyOp37
 70
     1
102
RTVSPropertyOp38
 70
     1
102
RTVSPropertyOp39
 70
     1
102
RTVSPropertyOp40
 70
     1
102
RTVSPropertyOp41
 70
     1
102
RTVSPropertyOp42
 70
     1
102
RTVSPropertyOp43
 70
     1
102
RTVSPropertyOp44
 70
     1
102
RTVSPropertyOp45
 70
     1
102
RTVSPropertyOp46
 70
     1
102
RTVSPropertyOp47
 70
     1
102
RTVSPropertyOp48
 70
     1
102
RTVSPropertyOp49
 70
     1
102
RTVSPropertyOp50
 70
     1
102
RTVSPropertyOp51
 70
     0
102
RTVSPropertyOp52
 70
     0
102
RTVSPropertyOp53
 70
     1
102
RTVSPropertyOp54
 70
     1
102
RTVSPropertyOp55
 70
     1
102
RTVSPropertyOp56
 70
     1
102
RTVSPropertyOp57
 70
     1
102
RTVSPost2010Prop28
280
     0
102
RTVSPost2010PropOp28
 70
     1
102
RTVSPost2010Prop29
280
     1
102
RTVSPost2010PropOp29
 70
     1
102
RTVSPost2010Prop30
280
     1
102
RTVSPost2010PropOp30
 70
     1
102
RTVSPost2010Prop31
280
     0
102
RTVSPost2010PropOp31
 70
     1
102
RTVSPost2010Prop32
280
     0
102
RTVSPost2010PropOp32
 70
     1
102
RTVSPost2010Prop33
280
     0
102
RTVSPost2010PropOp33
 70
     1
102
RTVSPost2010Prop34
280
     0
102
RTVSPost2010PropOp34
 70
     1
102
RTVSPost2010Prop35
280
     0
102
RTVSPost2010PropOp35
 70
     1
102
RTVSPost2010Prop36
280
     0
102
RTVSPost2010PropOp36
 70
     1
102
RTVSPost2010Prop37
 90
       50
102
RTVSPost2010PropOp37
 70
     1
102
RTVSPost2010Prop38
140
0.0
102
RTVSPost2010PropOp38
 70
     1
102
RTVSPost2010Prop39
140
1.0
102
RTVSPost2010PropOp39
 70
     1
102
RTVSPost2010Prop40
 90
        0
102
RTVSPost2010PropOp40
 70
     1
102
RTVSPost2010Prop41ColorIndex
 90
       18
102
RTVSPost2010Prop41ColorRGB
 90
        0
102
RTVSPost2010PropOp41
 70
     1
102
RTVSPost2010Prop42
 90
       50
102
RTVSPost2010PropOp42
 70
     1
102
RTVSPost2010Prop43
 90
        3
102
RTVSPost2010PropOp43
 70
     1
102
RTVSPost2010Prop44ColorIndex
 90
        5
102
RTVSPost2010Prop44ColorRGB
 90
      255
102
RTVSPost2010PropOp44
 70
     1
102
RTVSPost2010Prop45
280
     0
102
RTVSPost2010PropOp45
 70
     1
102
RTVSPost2010Prop46
 90
       50
102
RTVSPost2010PropOp46
 70
     1
102
RTVSPost2010Prop47
 90
       50
102
RTVSPost2010PropOp47
 70
     1
102
RTVSPost2010Prop48
 90
       50
102
RTVSPost2010PropOp48
 70
     1
102
RTVSPost2010Prop49
280
     0
102
RTVSPost2010PropOp49
 70
     1
102
RTVSPost2010Prop50
 90
       50
102
RTVSPost2010PropOp50
 70
     1
102
RTVSPost2010Prop51ColorIndex
 90
      256
102
RTVSPost2010Prop51ColorRGB
 90
-16777216
102
RTVSPost2010PropOp51
 70
     0
102
RTVSPost2010Prop52
140
1.0
102
RTVSPost2010PropOp52
 70
     0
102
RTVSPost2010Prop53
 90
        2
102
RTVSPost2010PropOp53
 70
     1
102
RTVSPost2010Prop54
  1
strokes_ogs.tif
102
RTVSPost2010PropOp54
 70
     1
102
RTVSPost2010Prop55
280
     0
102
RTVSPost2010PropOp55
 70
     1
102
RTVSPost2010Prop56
140
1.0
102
RTVSPost2010PropOp56
 70
     1
102
RTVSPost2010Prop57
140
1.0
102
RTVSPost2010PropOp57
 70
     1
  0
XRECORD
  5
118
102
{ACAD_REACTORS
330
117
102
}
330
117
100
AcDbXrecord
280
     1
102
RTVSPropertyOp0
 70
     1
102
RTVSPropertyOp1
 70
     1
102
RTVSPropertyOp2
 70
     1
102
RTVSPropertyOp3
 70
     1
102
RTVSPropertyOp4
 70
     1
102
RTVSPropertyOp5
 70
     1
102
RTVSPropertyOp6
 70
     1
102
RTVSPropertyOp7
 70
     1
102
RTVSPropertyOp8
 70
     1
102
RTVSPropertyOp9
 70
     1
102
RTVSPropertyOp10
 70
     1
102
RTVSPropertyOp11
 70
     1
102
RTVSPropertyOp12
 70
     1
102
RTVSPropertyOp13
 70
     1
102
RTVSPropertyOp14
 70
     1
102
RTVSPropertyOp15
 70
     1
102
RTVSPropertyOp16
 70
     1
102
RTVSPropertyOp17
 70
     1
102
RTVSPropertyOp18
 70
     1
102
RTVSPropertyOp19
 70
     1
102
RTVSPropertyOp20
 70
     1
102
RTVSPropertyOp21
 70
     1
102
RTVSPropertyOp22
 70
     1
102
RTVSPropertyOp23
 70
     1
102
RTVSPropertyOp24
 70
     1
102
RTVSPropertyOp25
 70
     1
102
RTVSPropertyOp26
 70
     1
102
RTVSPropertyOp27
 70
     1
102
RTVSPropertyOp28
 70
     1
102
RTVSPropertyOp29
 70
     1
102
RTVSPropertyOp30
 70
     1
102
RTVSPropertyOp31
 70
     1
102
RTVSPropertyOp32
 70
     1
102
RTVSPropertyOp33
 70
     1
102
RTVSPropertyOp34
 70
     1
102
RTVSPropertyOp35
 70
     1
102
RTVSPropertyOp36
 70
     1
102
RTVSPropertyOp37
 70
     1
102
RTVSPropertyOp38
 70
     1
102
RTVSPropertyOp39
 70
     1
102
RTVSPropertyOp40
 70
     1
102
RTVSPropertyOp41
 70
     1
102
RTVSPropertyOp42
 70
     1
102
RTVSPropertyOp43
 70
     1
102
RTVSPropertyOp44
 70
     1
102
RTVSPropertyOp45
 70
     1
102
RTVSPropertyOp46
 70
     1
102
RTVSPropertyOp47
 70
     1
102
RTVSPropertyOp48
 70
     1
102
RTVSPropertyOp49
 70
     1
102
RTVSPropertyOp50
 70
     1
102
RTVSPropertyOp51
 70
     0
102
RTVSPropertyOp52
 70
     0
102
RTVSPropertyOp53
 70
     1
102
RTVSPropertyOp54
 70
     1
102
RTVSPropertyOp55
 70
     1
102
RTVSPropertyOp56
 70
     1
102
RTVSPropertyOp57
 70
     1
102
RTVSPost2010Prop28
280
     0
102
RTVSPost2010PropOp28
 70
     1
102
RTVSPost2010Prop29
280
     1
102
RTVSPost2010PropOp29
 70
     1
102
RTVSPost2010Prop30
280
     1
102
RTVSPost2010PropOp30
 70
     1
102
RTVSPost2010Prop31
280
     0
102
RTVSPost2010PropOp31
 70
     1
102
RTVSPost2010Prop32
280
     0
102
RTVSPost2010PropOp32
 70
     1
102
RTVSPost2010Prop33
280
     0
102
RTVSPost2010PropOp33
 70
     1
102
RTVSPost2010Prop34
280
     0
102
RTVSPost2010PropOp34
 70
     1
102
RTVSPost2010Prop35
280
     0
102
RTVSPost2010PropOp35
 70
     1
102
RTVSPost2010Prop36
280
     0
102
RTVSPost2010PropOp36
 70
     1
102
RTVSPost2010Prop37
 90
       50
102
RTVSPost2010PropOp37
 70
     1
102
RTVSPost2010Prop38
140
0.0
102
RTVSPost2010PropOp38
 70
     1
102
RTVSPost2010Prop39
140
1.0
102
RTVSPost2010PropOp39
 70
     1
102
RTVSPost2010Prop40
 90
        0
102
RTVSPost2010PropOp40
 70
     1
102
RTVSPost2010Prop41ColorIndex
 90
       18
102
RTVSPost2010Prop41ColorRGB
 90
        0
102
RTVSPost2010PropOp41
 70
     1
102
RTVSPost2010Prop42
 90
       50
102
RTVSPost2010PropOp42
 70
     1
102
RTVSPost2010Prop43
 90
        3
102
RTVSPost2010PropOp43
 70
     1
102
RTVSPost2010Prop44ColorIndex
 90
        5
102
RTVSPost2010Prop44ColorRGB
 90
      255
102
RTVSPost2010PropOp44
 70
     1
102
RTVSPost2010Prop45
280
     0
102
RTVSPost2010PropOp45
 70
     1
102
RTVSPost2010Prop46
 90
       50
102
RTVSPost2010PropOp46
 70
     1
102
RTVSPost2010Prop47
 90
       50
102
RTVSPost2010PropOp47
 70
     1
102
RTVSPost2010Prop48
 90
       50
102
RTVSPost2010PropOp48
 70
     1
102
RTVSPost2010Prop49
280
     0
102
RTVSPost2010PropOp49
 70
     1
102
RTVSPost2010Prop50
 90
       50
102
RTVSPost2010PropOp50
 70
     1
102
RTVSPost2010Prop51ColorIndex
 90
      256
102
RTVSPost2010Prop51ColorRGB
 90
-16777216
102
RTVSPost2010PropOp51
 70
     0
102
RTVSPost2010Prop52
140
1.0
102
RTVSPost2010PropOp52
 70
     0
102
RTVSPost2010Prop53
 90
        2
102
RTVSPost2010PropOp53
 70
     1
102
RTVSPost2010Prop54
  1
strokes_ogs.tif
102
RTVSPost2010PropOp54
 70
     1
102
RTVSPost2010Prop55
280
     0
102
RTVSPost2010PropOp55
 70
     1
102
RTVSPost2010Prop56
140
1.0
102
RTVSPost2010PropOp56
 70
     1
102
RTVSPost2010Prop57
140
1.0
102
RTVSPost2010PropOp57
 70
     1
  0
XRECORD
  5
108
102
{ACAD_REACTORS
330
107
102
}
330
107
100
AcDbXrecord
280
     1
102
RTVSPropertyOp0
 70
     1
102
RTVSPropertyOp1
 70
     1
102
RTVSPropertyOp2
 70
     1
102
RTVSPropertyOp3
 70
     1
102
RTVSPropertyOp4
 70
     1
102
RTVSPropertyOp5
 70
     1
102
RTVSPropertyOp6
 70
     1
102
RTVSPropertyOp7
 70
     1
102
RTVSPropertyOp8
 70
     1
102
RTVSPropertyOp9
 70
     1
102
RTVSPropertyOp10
 70
     1
102
RTVSPropertyOp11
 70
     1
102
RTVSPropertyOp12
 70
     1
102
RTVSPropertyOp13
 70
     1
102
RTVSPropertyOp14
 70
     1
102
RTVSPropertyOp15
 70
     1
102
RTVSPropertyOp16
 70
     1
102
RTVSPropertyOp17
 70
     1
102
RTVSPropertyOp18
 70
     1
102
RTVSPropertyOp19
 70
     1
102
RTVSPropertyOp20
 70
     1
102
RTVSPropertyOp21
 70
     1
102
RTVSPropertyOp22
 70
     1
102
RTVSPropertyOp23
 70
     1
102
RTVSPropertyOp24
 70
     1
102
RTVSPropertyOp25
 70
     1
102
RTVSPropertyOp26
 70
     1
102
RTVSPropertyOp27
 70
     1
102
RTVSPropertyOp28
 70
     1
102
RTVSPropertyOp29
 70
     1
102
RTVSPropertyOp30
 70
     1
102
RTVSPropertyOp31
 70
     1
102
RTVSPropertyOp32
 70
     1
102
RTVSPropertyOp33
 70
     1
102
RTVSPropertyOp34
 70
     1
102
RTVSPropertyOp35
 70
     1
102
RTVSPropertyOp36
 70
     1
102
RTVSPropertyOp37
 70
     1
102
RTVSPropertyOp38
 70
     1
102
RTVSPropertyOp39
 70
     1
102
RTVSPropertyOp40
 70
     1
102
RTVSPropertyOp41
 70
     1
102
RTVSPropertyOp42
 70
     1
102
RTVSPropertyOp43
 70
     1
102
RTVSPropertyOp44
 70
     1
102
RTVSPropertyOp45
 70
     1
102
RTVSPropertyOp46
 70
     1
102
RTVSPropertyOp47
 70
     1
102
RTVSPropertyOp48
 70
     1
102
RTVSPropertyOp49
 70
     1
102
RTVSPropertyOp50
 70
     1
102
RTVSPropertyOp51
 70
     0
102
RTVSPropertyOp52
 70
     0
102
RTVSPropertyOp53
 70
     1
102
RTVSPropertyOp54
 70
     1
102
RTVSPropertyOp55
 70
     1
102
RTVSPropertyOp56
 70
     1
102
RTVSPropertyOp57
 70
     1
102
RTVSPost2010Prop28
280
     0
102
RTVSPost2010PropOp28
 70
     1
102
RTVSPost2010Prop29
280
     1
102
RTVSPost2010PropOp29
 70
     1
102
RTVSPost2010Prop30
280
     1
102
RTVSPost2010PropOp30
 70
     1
102
RTVSPost2010Prop31
280
     0
102
RTVSPost2010PropOp31
 70
     1
102
RTVSPost2010Prop32
280
     0
102
RTVSPost2010PropOp32
 70
     1
102
RTVSPost2010Prop33
280
     0
102
RTVSPost2010PropOp33
 70
     1
102
RTVSPost2010Prop34
280
     0
102
RTVSPost2010PropOp34
 70
     1
102
RTVSPost2010Prop35
280
     0
102
RTVSPost2010PropOp35
 70
     1
102
RTVSPost2010Prop36
280
     0
102
RTVSPost2010PropOp36
 70
     1
102
RTVSPost2010Prop37
 90
       50
102
RTVSPost2010PropOp37
 70
     1
102
RTVSPost2010Prop38
140
0.0
102
RTVSPost2010PropOp38
 70
     1
102
RTVSPost2010Prop39
140
1.0
102
RTVSPost2010PropOp39
 70
     1
102
RTVSPost2010Prop40
 90
        0
102
RTVSPost2010PropOp40
 70
     1
102
RTVSPost2010Prop41ColorIndex
 90
       18
102
RTVSPost2010Prop41ColorRGB
 90
        0
102
RTVSPost2010PropOp41
 70
     1
102
RTVSPost2010Prop42
 90
       50
102
RTVSPost2010PropOp42
 70
     1
102
RTVSPost2010Prop43
 90
        3
102
RTVSPost2010PropOp43
 70
     1
102
RTVSPost2010Prop44ColorIndex
 90
        5
102
RTVSPost2010Prop44ColorRGB
 90
      255
102
RTVSPost2010PropOp44
 70
     1
102
RTVSPost2010Prop45
280
     0
102
RTVSPost2010PropOp45
 70
     1
102
RTVSPost2010Prop46
 90
       50
102
RTVSPost2010PropOp46
 70
     1
102
RTVSPost2010Prop47
 90
       50
102
RTVSPost2010PropOp47
 70
     1
102
RTVSPost2010Prop48
 90
       50
102
RTVSPost2010PropOp48
 70
     1
102
RTVSPost2010Prop49
280
     0
102
RTVSPost2010PropOp49
 70
     1
102
RTVSPost2010Prop50
 90
       50
102
RTVSPost2010PropOp50
 70
     1
102
RTVSPost2010Prop51ColorIndex
 90
      256
102
RTVSPost2010Prop51ColorRGB
 90
-16777216
102
RTVSPost2010PropOp51
 70
     0
102
RTVSPost2010Prop52
140
1.0
102
RTVSPost2010PropOp52
 70
     0
102
RTVSPost2010Prop53
 90
        2
102
RTVSPost2010PropOp53
 70
     1
102
RTVSPost2010Prop54
  1
strokes_ogs.tif
102
RTVSPost2010PropOp54
 70
     1
102
RTVSPost2010Prop55
280
     0
102
RTVSPost2010PropOp55
 70
     1
102
RTVSPost2010Prop56
140
1.0
102
RTVSPost2010PropOp56
 70
     1
102
RTVSPost2010Prop57
140
1.0
102
RTVSPost2010PropOp57
 70
     1
  0
XRECORD
  5
FA
102
{ACAD_REACTORS
330
F9
102
}
330
F9
100
AcDbXrecord
280
     1
102
RTVSPropertyOp0
 70
     1
102
RTVSPropertyOp1
 70
     1
102
RTVSPropertyOp2
 70
     1
102
RTVSPropertyOp3
 70
     1
102
RTVSPropertyOp4
 70
     1
102
RTVSPropertyOp5
 70
     1
102
RTVSPropertyOp6
 70
     1
102
RTVSPropertyOp7
 70
     1
102
RTVSPropertyOp8
 70
     1
102
RTVSPropertyOp9
 70
     1
102
RTVSPropertyOp10
 70
     1
102
RTVSPropertyOp11
 70
     1
102
RTVSPropertyOp12
 70
     1
102
RTVSPropertyOp13
 70
     1
102
RTVSPropertyOp14
 70
     1
102
RTVSPropertyOp15
 70
     1
102
RTVSPropertyOp16
 70
     1
102
RTVSPropertyOp17
 70
     1
102
RTVSPropertyOp18
 70
     1
102
RTVSPropertyOp19
 70
     1
102
RTVSPropertyOp20
 70
     1
102
RTVSPropertyOp21
 70
     1
102
RTVSPropertyOp22
 70
     1
102
RTVSPropertyOp23
 70
     1
102
RTVSPropertyOp24
 70
     1
102
RTVSPropertyOp25
 70
     1
102
RTVSPropertyOp26
 70
     1
102
RTVSPropertyOp27
 70
     1
102
RTVSPropertyOp28
 70
     1
102
RTVSPropertyOp29
 70
     1
102
RTVSPropertyOp30
 70
     1
102
RTVSPropertyOp31
 70
     1
102
RTVSPropertyOp32
 70
     1
102
RTVSPropertyOp33
 70
     1
102
RTVSPropertyOp34
 70
     1
102
RTVSPropertyOp35
 70
     1
102
RTVSPropertyOp36
 70
     1
102
RTVSPropertyOp37
 70
     1
102
RTVSPropertyOp38
 70
     1
102
RTVSPropertyOp39
 70
     1
102
RTVSPropertyOp40
 70
     1
102
RTVSPropertyOp41
 70
     1
102
RTVSPropertyOp42
 70
     1
102
RTVSPropertyOp43
 70
     1
102
RTVSPropertyOp44
 70
     1
102
RTVSPropertyOp45
 70
     1
102
RTVSPropertyOp46
 70
     1
102
RTVSPropertyOp47
 70
     1
102
RTVSPropertyOp48
 70
     1
102
RTVSPropertyOp49
 70
     1
102
RTVSPropertyOp50
 70
     1
102
RTVSPropertyOp51
 70
     0
102
RTVSPropertyOp52
 70
     0
102
RTVSPropertyOp53
 70
     1
102
RTVSPropertyOp54
 70
     1
102
RTVSPropertyOp55
 70
     1
102
RTVSPropertyOp56
 70
     1
102
RTVSPropertyOp57
 70
     1
102
RTVSPost2010Prop28
280
     0
102
RTVSPost2010PropOp28
 70
     1
102
RTVSPost2010Prop29
280
     1
102
RTVSPost2010PropOp29
 70
     1
102
RTVSPost2010Prop30
280
     1
102
RTVSPost2010PropOp30
 70
     1
102
RTVSPost2010Prop31
280
     0
102
RTVSPost2010PropOp31
 70
     1
102
RTVSPost2010Prop32
280
     0
102
RTVSPost2010PropOp32
 70
     1
102
RTVSPost2010Prop33
280
     0
102
RTVSPost2010PropOp33
 70
     1
102
RTVSPost2010Prop34
280
     0
102
RTVSPost2010PropOp34
 70
     1
102
RTVSPost2010Prop35
280
     0
102
RTVSPost2010PropOp35
 70
     1
102
RTVSPost2010Prop36
280
     0
102
RTVSPost2010PropOp36
 70
     1
102
RTVSPost2010Prop37
 90
       50
102
RTVSPost2010PropOp37
 70
     1
102
RTVSPost2010Prop38
140
0.0
102
RTVSPost2010PropOp38
 70
     1
102
RTVSPost2010Prop39
140
1.0
102
RTVSPost2010PropOp39
 70
     1
102
RTVSPost2010Prop40
 90
        0
102
RTVSPost2010PropOp40
 70
     1
102
RTVSPost2010Prop41ColorIndex
 90
       18
102
RTVSPost2010Prop41ColorRGB
 90
        0
102
RTVSPost2010PropOp41
 70
     1
102
RTVSPost2010Prop42
 90
       50
102
RTVSPost2010PropOp42
 70
     1
102
RTVSPost2010Prop43
 90
        3
102
RTVSPost2010PropOp43
 70
     1
102
RTVSPost2010Prop44ColorIndex
 90
        5
102
RTVSPost2010Prop44ColorRGB
 90
      255
102
RTVSPost2010PropOp44
 70
     1
102
RTVSPost2010Prop45
280
     0
102
RTVSPost2010PropOp45
 70
     1
102
RTVSPost2010Prop46
 90
       50
102
RTVSPost2010PropOp46
 70
     1
102
RTVSPost2010Prop47
 90
       50
102
RTVSPost2010PropOp47
 70
     1
102
RTVSPost2010Prop48
 90
       50
102
RTVSPost2010PropOp48
 70
     1
102
RTVSPost2010Prop49
280
     0
102
RTVSPost2010PropOp49
 70
     1
102
RTVSPost2010Prop50
 90
       50
102
RTVSPost2010PropOp50
 70
     1
102
RTVSPost2010Prop51ColorIndex
 90
      256
102
RTVSPost2010Prop51ColorRGB
 90
-16777216
102
RTVSPost2010PropOp51
 70
     0
102
RTVSPost2010Prop52
140
1.0
102
RTVSPost2010PropOp52
 70
     0
102
RTVSPost2010Prop53
 90
        2
102
RTVSPost2010PropOp53
 70
     1
102
RTVSPost2010Prop54
  1
strokes_ogs.tif
102
RTVSPost2010PropOp54
 70
     1
102
RTVSPost2010Prop55
280
     0
102
RTVSPost2010PropOp55
 70
     1
102
RTVSPost2010Prop56
140
1.0
102
RTVSPost2010PropOp56
 70
     1
102
RTVSPost2010Prop57
140
1.0
102
RTVSPost2010PropOp57
 70
     1
  0
XRECORD
  5
11A
102
{ACAD_REACTORS
330
119
102
}
330
119
100
AcDbXrecord
280
     1
102
RTVSPropertyOp0
 70
     1
102
RTVSPropertyOp1
 70
     1
102
RTVSPropertyOp2
 70
     1
102
RTVSPropertyOp3
 70
     1
102
RTVSPropertyOp4
 70
     1
102
RTVSPropertyOp5
 70
     1
102
RTVSPropertyOp6
 70
     1
102
RTVSPropertyOp7
 70
     1
102
RTVSPropertyOp8
 70
     1
102
RTVSPropertyOp9
 70
     1
102
RTVSPropertyOp10
 70
     1
102
RTVSPropertyOp11
 70
     1
102
RTVSPropertyOp12
 70
     1
102
RTVSPropertyOp13
 70
     1
102
RTVSPropertyOp14
 70
     1
102
RTVSPropertyOp15
 70
     1
102
RTVSPropertyOp16
 70
     1
102
RTVSPropertyOp17
 70
     1
102
RTVSPropertyOp18
 70
     1
102
RTVSPropertyOp19
 70
     1
102
RTVSPropertyOp20
 70
     1
102
RTVSPropertyOp21
 70
     1
102
RTVSPropertyOp22
 70
     1
102
RTVSPropertyOp23
 70
     1
102
RTVSPropertyOp24
 70
     1
102
RTVSPropertyOp25
 70
     1
102
RTVSPropertyOp26
 70
     1
102
RTVSPropertyOp27
 70
     1
102
RTVSPropertyOp28
 70
     1
102
RTVSPropertyOp29
 70
     1
102
RTVSPropertyOp30
 70
     1
102
RTVSPropertyOp31
 70
     1
102
RTVSPropertyOp32
 70
     1
102
RTVSPropertyOp33
 70
     1
102
RTVSPropertyOp34
 70
     1
102
RTVSPropertyOp35
 70
     1
102
RTVSPropertyOp36
 70
     1
102
RTVSPropertyOp37
 70
     1
102
RTVSPropertyOp38
 70
     1
102
RTVSPropertyOp39
 70
     1
102
RTVSPropertyOp40
 70
     1
102
RTVSPropertyOp41
 70
     1
102
RTVSPropertyOp42
 70
     1
102
RTVSPropertyOp43
 70
     1
102
RTVSPropertyOp44
 70
     1
102
RTVSPropertyOp45
 70
     1
102
RTVSPropertyOp46
 70
     1
102
RTVSPropertyOp47
 70
     1
102
RTVSPropertyOp48
 70
     1
102
RTVSPropertyOp49
 70
     1
102
RTVSPropertyOp50
 70
     1
102
RTVSPropertyOp51
 70
     0
102
RTVSPropertyOp52
 70
     0
102
RTVSPropertyOp53
 70
     1
102
RTVSPropertyOp54
 70
     1
102
RTVSPropertyOp55
 70
     1
102
RTVSPropertyOp56
 70
     1
102
RTVSPropertyOp57
 70
     1
102
RTVSPost2010Prop28
280
     0
102
RTVSPost2010PropOp28
 70
     1
102
RTVSPost2010Prop29
280
     1
102
RTVSPost2010PropOp29
 70
     1
102
RTVSPost2010Prop30
280
     1
102
RTVSPost2010PropOp30
 70
     1
102
RTVSPost2010Prop31
280
     0
102
RTVSPost2010PropOp31
 70
     1
102
RTVSPost2010Prop32
280
     0
102
RTVSPost2010PropOp32
 70
     1
102
RTVSPost2010Prop33
280
     0
102
RTVSPost2010PropOp33
 70
     1
102
RTVSPost2010Prop34
280
     0
102
RTVSPost2010PropOp34
 70
     1
102
RTVSPost2010Prop35
280
     0
102
RTVSPost2010PropOp35
 70
     1
102
RTVSPost2010Prop36
280
     0
102
RTVSPost2010PropOp36
 70
     1
102
RTVSPost2010Prop37
 90
       50
102
RTVSPost2010PropOp37
 70
     1
102
RTVSPost2010Prop38
140
0.0
102
RTVSPost2010PropOp38
 70
     1
102
RTVSPost2010Prop39
140
1.0
102
RTVSPost2010PropOp39
 70
     1
102
RTVSPost2010Prop40
 90
        0
102
RTVSPost2010PropOp40
 70
     1
102
RTVSPost2010Prop41ColorIndex
 90
       18
102
RTVSPost2010Prop41ColorRGB
 90
        0
102
RTVSPost2010PropOp41
 70
     1
102
RTVSPost2010Prop42
 90
       50
102
RTVSPost2010PropOp42
 70
     1
102
RTVSPost2010Prop43
 90
        3
102
RTVSPost2010PropOp43
 70
     1
102
RTVSPost2010Prop44ColorIndex
 90
        5
102
RTVSPost2010Prop44ColorRGB
 90
      255
102
RTVSPost2010PropOp44
 70
     1
102
RTVSPost2010Prop45
280
     0
102
RTVSPost2010PropOp45
 70
     1
102
RTVSPost2010Prop46
 90
       50
102
RTVSPost2010PropOp46
 70
     1
102
RTVSPost2010Prop47
 90
       50
102
RTVSPost2010PropOp47
 70
     1
102
RTVSPost2010Prop48
 90
       50
102
RTVSPost2010PropOp48
 70
     1
102
RTVSPost2010Prop49
280
     0
102
RTVSPost2010PropOp49
 70
     1
102
RTVSPost2010Prop50
 90
       50
102
RTVSPost2010PropOp50
 70
     1
102
RTVSPost2010Prop51ColorIndex
 90
      256
102
RTVSPost2010Prop51ColorRGB
 90
-16777216
102
RTVSPost2010PropOp51
 70
     0
102
RTVSPost2010Prop52
140
1.0
102
RTVSPost2010PropOp52
 70
     0
102
RTVSPost2010Prop53
 90
        2
102
RTVSPost2010PropOp53
 70
     1
102
RTVSPost2010Prop54
  1
strokes_ogs.tif
102
RTVSPost2010PropOp54
 70
     1
102
RTVSPost2010Prop55
280
     0
102
RTVSPost2010PropOp55
 70
     1
102
RTVSPost2010Prop56
140
1.0
102
RTVSPost2010PropOp56
 70
     1
102
RTVSPost2010Prop57
140
1.0
102
RTVSPost2010PropOp57
 70
     1
  0
ENDSEC
  0
EOF
